  0
SECTION
  2
ENTITIES
  0
ARC
  8
APS_GEOMETRY
 10
0.25
 20
4.265625
 40
0.375
 50
0.0
 51
90.0
  0
LINE
  8
APS_GEOMETRY
 10
0.25
 11
0.25005
 20
4.640625
 21
4.703125
  0
LINE
  8
APS_GEOMETRY
 10
0.25005
 11
0.0
 20
4.703125
 21
4.703125
  0
LINE
  8
APS_GEOMETRY
 10
0.0
 11
0.0
 20
4.703125
 21
3.953125
  0
LINE
  8
APS_GEOMETRY
 10
0.0
 11
0.25
 20
3.953125
 21
3.953125
  0
LINE
  8
APS_GEOMETRY
 10
0.25
 11
0.25
 20
3.953125
 21
0.750025
  0
LINE
  8
APS_GEOMETRY
 10
0.25
 11
0.0
 20
0.750025
 21
0.750025
  0
LINE
  8
APS_GEOMETRY
 10
0.0
 11
0.0
 20
0.750025
 21
0.0
  0
LINE
  8
APS_GEOMETRY
 10
0.0
 11
0.25005
 20
0.0
 21
0.0
  0
LINE
  8
APS_GEOMETRY
 10
0.25005
 11
0.25
 20
0.0
 21
0.062525
  0
ARC
  8
APS_GEOMETRY
 10
0.25
 20
0.437525
 40
0.375
 50
270.0
 51
0.0
  0
LINE
  8
APS_GEOMETRY
 10
0.625
 11
0.75
 20
0.437525
 21
0.437525
  0
LINE
  8
APS_GEOMETRY
 10
0.75
 11
0.75
 20
0.437525
 21
1.312525
  0
LINE
  8
APS_GEOMETRY
 10
0.75
 11
0.62405
 20
1.312525
 21
1.407225
  0
ARC
  8
APS_GEOMETRY
 10
0.343709
 20
1.656291
 40
0.375
 50
318.380849
 51
41.619151
  0
LINE
  8
APS_GEOMETRY
 10
0.62405
 11
0.718714
 20
1.905357
 21
2.058748
  0
ARC
  8
APS_GEOMETRY
 10
1.12405
 20
2.351499
 40
0.5
 50
144.158955
 51
215.838411
  0
LINE
  8
APS_GEOMETRY
 10
0.718727
 11
0.62405
 20
2.644268
 21
2.79764
  0
ARC
  8
APS_GEOMETRY
 10
0.343732
 20
3.046732
 40
0.375
 50
318.375444
 51
41.624655
  0
LINE
  8
APS_GEOMETRY
 10
0.62405
 11
0.75
 20
3.295825
 21
3.390535
  0
LINE
  8
APS_GEOMETRY
 10
0.75
 11
0.75
 20
3.390535
 21
4.265625
  0
LINE
  8
APS_GEOMETRY
 10
0.75
 11
0.625
 20
4.265625
 21
4.265625
  0
LINE
  8
CONSTRUCTION
 10
0.152615
 11
0.10065
 20
-1.038482
 21
-1.166909
  0
LINE
  8
CONSTRUCTION
 10
0.10065
 11
0.20458
 20
-1.166909
 21
-1.166909
  0
LINE
  8
CONSTRUCTION
 10
0.20458
 11
0.152615
 20
-1.166909
 21
-1.038482
  0
LINE
  8
CONSTRUCTION
 10
0.152615
 11
0.559547
 20
-1.038482
 21
-1.03848
  0
LINE
  8
CONSTRUCTION
 10
0.559547
 11
0.507582
 20
-1.03848
 21
-1.166908
  0
LINE
  8
CONSTRUCTION
 10
0.507582
 11
0.611512
 20
-1.166908
 21
-1.166908
  0
LINE
  8
CONSTRUCTION
 10
0.611512
 11
0.559547
 20
-1.166908
 21
-1.03848
  0
LINE
  8
CONSTRUCTION
 10
0.559547
 11
0.966478
 20
-1.03848
 21
-1.03848
  0
LINE
  8
CONSTRUCTION
 10
0.966478
 11
0.914513
 20
-1.03848
 21
-1.166908
  0
LINE
  8
CONSTRUCTION
 10
0.914513
 11
1.018442
 20
-1.166908
 21
-1.166908
  0
LINE
  8
CONSTRUCTION
 10
1.018442
 11
0.966478
 20
-1.166908
 21
-1.03848
  0
LINE
  8
CONSTRUCTION
 10
0.966478
 11
1.373408
 20
-1.03848
 21
-1.03848
  0
LINE
  8
CONSTRUCTION
 10
1.373408
 11
1.321443
 20
-1.03848
 21
-1.166908
  0
LINE
  8
CONSTRUCTION
 10
1.321443
 11
1.425373
 20
-1.166908
 21
-1.166908
  0
LINE
  8
CONSTRUCTION
 10
1.425373
 11
1.373408
 20
-1.166908
 21
-1.03848
  0
LINE
  8
CONSTRUCTION
 10
1.373408
 11
1.780281
 20
-1.03848
 21
-1.038482
  0
LINE
  8
CONSTRUCTION
 10
1.780281
 11
1.728316
 20
-1.038482
 21
-1.166909
  0
LINE
  8
CONSTRUCTION
 10
1.728316
 11
1.832246
 20
-1.166909
 21
-1.166909
  0
LINE
  8
CONSTRUCTION
 10
1.832246
 11
1.780281
 20
-1.166909
 21
-1.038482
  0
LINE
  8
CONSTRUCTION
 10
0.0
 11
4.0
 20
-1.561751
 21
-1.561751
  0
TEXT
  8
TEXT
 10
0.10065
 20
-1.405784
 30
0.0
 40
0.224
 50
0.0
  1
DOVETAIL DESIGNS
  0
TEXT
  8
TEXT
 10
2.276036
 20
-1.551751
 30
0.0
 40
0.099
 50
0.0
  1
& MILLWORK INC.
  0
TEXT
  8
TEXT
 10
1.092458
 20
-1.640461
 30
0.0
 40
0.07
 50
0.0
  1
Established 1979
  0
TEXT
  8
TEXT
 10
0.1
 20
-1.8
 30
0.0
 40
0.1
 50
0.0
  1
Phone: (406) 248-5010    Website: www.dovetailmt.com
  0
TEXT
  8
TEXT
 10
0.0
 20
-0.5
 30
0.0
 40
0.1
 50
0.0
  1
3/4"x4-11/16"
  0
TEXT
  8
TEXT
 10
0.0
 20
-0.25
 30
0.0
 40
0.15625
 50
0.0
  1
CS116
  0
ENDSEC
  0
EOF
