  0
SECTION
  2
ENTITIES
  0
ARC
  8
APS_GEOMETRY
 10
0.4
 20
2.43
 40
0.07
 50
0.0
 51
90.0
  0
LINE
  8
APS_GEOMETRY
 10
0.4
 11
0.0
 20
2.5
 21
2.5
  0
LINE
  8
APS_GEOMETRY
 10
0.0
 11
0.0
 20
2.5
 21
2.14
  0
ARC
  8
APS_GEOMETRY
 10
0.015
 20
2.14
 40
0.015
 50
180.0
 51
270.0
  0
LINE
  8
APS_GEOMETRY
 10
0.015
 11
0.085
 20
2.125
 21
2.125
  0
ARC
  8
APS_GEOMETRY
 10
0.085
 20
2.11
 40
0.015
 50
0.0
 51
90.0
  0
LINE
  8
APS_GEOMETRY
 10
0.1
 11
0.1
 20
2.11
 21
0.39
  0
ARC
  8
APS_GEOMETRY
 10
0.085
 20
0.39
 40
0.015
 50
270.0
 51
0.0
  0
LINE
  8
APS_GEOMETRY
 10
0.085
 11
0.015
 20
0.375
 21
0.375
  0
ARC
  8
APS_GEOMETRY
 10
0.015
 20
0.36
 40
0.015
 50
90.0
 51
180.0
  0
LINE
  8
APS_GEOMETRY
 10
0.0
 11
0.0
 20
0.36
 21
0.0
  0
LINE
  8
APS_GEOMETRY
 10
0.0
 11
0.735
 20
0.0
 21
0.0
  0
ARC
  8
APS_GEOMETRY
 10
0.735
 20
0.015
 40
0.015
 50
270.0
 51
0.0
  0
LINE
  8
APS_GEOMETRY
 10
0.75
 11
0.75
 20
0.015
 21
0.880382
  0
ARC
  8
APS_GEOMETRY
 10
0.735
 20
0.880382
 40
0.015
 50
0.0
 51
85.968664
  0
LINE
  8
APS_GEOMETRY
 10
0.736055
 11
0.67
 20
0.895345
 21
0.9
  0
ARC
  8
APS_GEOMETRY
 10
0.481055
 20
1.111046
 40
0.283268
 50
311.837414
 51
47.342101
  0
ARC
  8
APS_GEOMETRY
 10
1.465473
 20
2.179427
 40
1.169494
 50
222.793817
 51
227.342207
  0
ARC
  8
APS_GEOMETRY
 10
0.964126
 20
1.715275
 40
0.486276
 50
153.028013
 51
222.793771
  0
ARC
  8
APS_GEOMETRY
 10
0.52183
 20
1.940363
 40
0.01
 50
333.029193
 51
58.398199
  0
LINE
  8
APS_GEOMETRY
 10
0.527071
 11
0.47
 20
1.94888
 21
1.984
  0
LINE
  8
APS_GEOMETRY
 10
0.47
 11
0.47
 20
1.984
 21
2.43
  0
LINE
  8
CONSTRUCTION
 10
0.152615
 11
0.10065
 20
-1.038482
 21
-1.166909
  0
LINE
  8
CONSTRUCTION
 10
0.10065
 11
0.20458
 20
-1.166909
 21
-1.166909
  0
LINE
  8
CONSTRUCTION
 10
0.20458
 11
0.152615
 20
-1.166909
 21
-1.038482
  0
LINE
  8
CONSTRUCTION
 10
0.152615
 11
0.559547
 20
-1.038482
 21
-1.03848
  0
LINE
  8
CONSTRUCTION
 10
0.559547
 11
0.507582
 20
-1.03848
 21
-1.166908
  0
LINE
  8
CONSTRUCTION
 10
0.507582
 11
0.611512
 20
-1.166908
 21
-1.166908
  0
LINE
  8
CONSTRUCTION
 10
0.611512
 11
0.559547
 20
-1.166908
 21
-1.03848
  0
LINE
  8
CONSTRUCTION
 10
0.559547
 11
0.966478
 20
-1.03848
 21
-1.03848
  0
LINE
  8
CONSTRUCTION
 10
0.966478
 11
0.914513
 20
-1.03848
 21
-1.166908
  0
LINE
  8
CONSTRUCTION
 10
0.914513
 11
1.018442
 20
-1.166908
 21
-1.166908
  0
LINE
  8
CONSTRUCTION
 10
1.018442
 11
0.966478
 20
-1.166908
 21
-1.03848
  0
LINE
  8
CONSTRUCTION
 10
0.966478
 11
1.373408
 20
-1.03848
 21
-1.03848
  0
LINE
  8
CONSTRUCTION
 10
1.373408
 11
1.321443
 20
-1.03848
 21
-1.166908
  0
LINE
  8
CONSTRUCTION
 10
1.321443
 11
1.425373
 20
-1.166908
 21
-1.166908
  0
LINE
  8
CONSTRUCTION
 10
1.425373
 11
1.373408
 20
-1.166908
 21
-1.03848
  0
LINE
  8
CONSTRUCTION
 10
1.373408
 11
1.780281
 20
-1.03848
 21
-1.038482
  0
LINE
  8
CONSTRUCTION
 10
1.780281
 11
1.728316
 20
-1.038482
 21
-1.166909
  0
LINE
  8
CONSTRUCTION
 10
1.728316
 11
1.832246
 20
-1.166909
 21
-1.166909
  0
LINE
  8
CONSTRUCTION
 10
1.832246
 11
1.780281
 20
-1.166909
 21
-1.038482
  0
LINE
  8
CONSTRUCTION
 10
0.0
 11
4.0
 20
-1.561751
 21
-1.561751
  0
TEXT
  8
TEXT
 10
0.10065
 20
-1.405784
 30
0.0
 40
0.224
 50
0.0
  1
DOVETAIL DESIGNS
  0
TEXT
  8
TEXT
 10
2.276036
 20
-1.551751
 30
0.0
 40
0.099
 50
0.0
  1
& MILLWORK INC.
  0
TEXT
  8
TEXT
 10
1.092458
 20
-1.640461
 30
0.0
 40
0.07
 50
0.0
  1
Established 1979
  0
TEXT
  8
TEXT
 10
0.1
 20
-1.8
 30
0.0
 40
0.1
 50
0.0
  1
Phone: (406) 248-5010    Website: www.dovetailmt.com
  0
TEXT
  8
TEXT
 10
0.0
 20
-0.5
 30
0.0
 40
0.1
 50
0.0
  1
3/4"x2-1/2"
  0
TEXT
  8
TEXT
 10
0.0
 20
-0.25
 30
0.0
 40
0.15625
 50
0.0
  1
CS114
  0
ENDSEC
  0
EOF
