  0
SECTION
  2
ENTITIES
  0
ARC
  8
APS_GEOMETRY
 10
0.718805
 20
3.033843
 40
0.03125
 50
308.171473
 51
359.999978
  0
LINE
  8
APS_GEOMETRY
 10
0.750055
 11
0.750055
 20
3.033843
 21
3.437477
  0
ARC
  8
APS_GEOMETRY
 10
0.687555
 20
3.437477
 40
0.0625
 50
359.999978
 51
90.0
  0
LINE
  8
APS_GEOMETRY
 10
0.687555
 11
0.000109
 20
3.499977
 21
3.499977
  0
LINE
  8
APS_GEOMETRY
 10
0.000109
 11
0.000055
 20
3.499977
 21
3.018659
  0
LINE
  8
APS_GEOMETRY
 10
0.000055
 11
0.031304
 20
3.018659
 21
3.018659
  0
ARC
  8
APS_GEOMETRY
 10
0.031304
 20
2.956159
 40
0.0625
 50
359.999095
 51
90.0
  0
LINE
  8
APS_GEOMETRY
 10
0.093804
 11
0.093766
 20
2.956158
 21
0.543811
  0
ARC
  8
APS_GEOMETRY
 10
0.031266
 20
0.543812
 40
0.0625
 50
270.0
 51
359.999095
  0
LINE
  8
APS_GEOMETRY
 10
0.031266
 11
0.000015
 20
0.481312
 21
0.481312
  0
LINE
  8
APS_GEOMETRY
 10
0.000015
 11
0.0
 20
0.481312
 21
0.0
  0
LINE
  8
APS_GEOMETRY
 10
0.0
 11
0.687502
 20
0.0
 21
-0.000023
  0
ARC
  8
APS_GEOMETRY
 10
0.687502
 20
0.062477
 40
0.0625
 50
270.0
 51
359.998212
  0
LINE
  8
APS_GEOMETRY
 10
0.750002
 11
0.750015
 20
0.062475
 21
0.466105
  0
ARC
  8
APS_GEOMETRY
 10
0.718765
 20
0.466106
 40
0.03125
 50
359.998212
 51
51.826717
  0
LINE
  8
APS_GEOMETRY
 10
0.738079
 11
0.597201
 20
0.490673
 21
0.601426
  0
ARC
  8
APS_GEOMETRY
 10
0.41546
 20
0.806069
 40
0.273694
 50
311.607884
 51
54.984777
  0
ARC
  8
APS_GEOMETRY
 10
-1.110433
 20
1.750003
 40
1.830399
 50
336.843979
 51
23.154196
  0
ARC
  8
APS_GEOMETRY
 10
0.41549
 20
2.693889
 40
0.273694
 50
305.013502
 51
48.390286
  0
LINE
  8
APS_GEOMETRY
 10
0.597237
 11
0.738118
 20
2.898526
 21
3.009275
  0
LINE
  8
CONSTRUCTION
 10
0.152615
 11
0.10065
 20
-1.038482
 21
-1.166909
  0
LINE
  8
CONSTRUCTION
 10
0.10065
 11
0.20458
 20
-1.166909
 21
-1.166909
  0
LINE
  8
CONSTRUCTION
 10
0.20458
 11
0.152615
 20
-1.166909
 21
-1.038482
  0
LINE
  8
CONSTRUCTION
 10
0.152615
 11
0.559547
 20
-1.038482
 21
-1.03848
  0
LINE
  8
CONSTRUCTION
 10
0.559547
 11
0.507582
 20
-1.03848
 21
-1.166908
  0
LINE
  8
CONSTRUCTION
 10
0.507582
 11
0.611512
 20
-1.166908
 21
-1.166908
  0
LINE
  8
CONSTRUCTION
 10
0.611512
 11
0.559547
 20
-1.166908
 21
-1.03848
  0
LINE
  8
CONSTRUCTION
 10
0.559547
 11
0.966478
 20
-1.03848
 21
-1.03848
  0
LINE
  8
CONSTRUCTION
 10
0.966478
 11
0.914513
 20
-1.03848
 21
-1.166908
  0
LINE
  8
CONSTRUCTION
 10
0.914513
 11
1.018442
 20
-1.166908
 21
-1.166908
  0
LINE
  8
CONSTRUCTION
 10
1.018442
 11
0.966478
 20
-1.166908
 21
-1.03848
  0
LINE
  8
CONSTRUCTION
 10
0.966478
 11
1.373408
 20
-1.03848
 21
-1.03848
  0
LINE
  8
CONSTRUCTION
 10
1.373408
 11
1.321443
 20
-1.03848
 21
-1.166908
  0
LINE
  8
CONSTRUCTION
 10
1.321443
 11
1.425373
 20
-1.166908
 21
-1.166908
  0
LINE
  8
CONSTRUCTION
 10
1.425373
 11
1.373408
 20
-1.166908
 21
-1.03848
  0
LINE
  8
CONSTRUCTION
 10
1.373408
 11
1.780281
 20
-1.03848
 21
-1.038482
  0
LINE
  8
CONSTRUCTION
 10
1.780281
 11
1.728316
 20
-1.038482
 21
-1.166909
  0
LINE
  8
CONSTRUCTION
 10
1.728316
 11
1.832246
 20
-1.166909
 21
-1.166909
  0
LINE
  8
CONSTRUCTION
 10
1.832246
 11
1.780281
 20
-1.166909
 21
-1.038482
  0
LINE
  8
CONSTRUCTION
 10
0.0
 11
4.0
 20
-1.561751
 21
-1.561751
  0
TEXT
  8
TEXT
 10
0.10065
 20
-1.405784
 30
0.0
 40
0.224
 50
0.0
  1
DOVETAIL DESIGNS
  0
TEXT
  8
TEXT
 10
2.276036
 20
-1.551751
 30
0.0
 40
0.099
 50
0.0
  1
& MILLWORK INC.
  0
TEXT
  8
TEXT
 10
1.092458
 20
-1.640461
 30
0.0
 40
0.07
 50
0.0
  1
Established 1979
  0
TEXT
  8
TEXT
 10
0.1
 20
-1.8
 30
0.0
 40
0.1
 50
0.0
  1
Phone: (406) 248-5010    Website: www.dovetailmt.com
  0
TEXT
  8
TEXT
 10
0.0
 20
-0.25
 30
0.0
 40
0.15625
 50
0.0
  1
CS111
  0
TEXT
  8
TEXT
 10
0.0
 20
-0.5
 30
0.0
 40
0.1
 50
0.0
  1
3/4"x3-1/2"
  0
ENDSEC
  0
EOF
