  0
SECTION
  2
ENTITIES
  0
ARC
  8
APS_GEOMETRY
 10
0.69
 20
0.06
 40
0.06
 50
270.0
 51
0.0
  0
LINE
  8
APS_GEOMETRY
 10
0.75
 11
0.75
 20
0.06
 21
0.5025
  0
ARC
  8
APS_GEOMETRY
 10
0.69
 20
0.5025
 40
0.06
 50
0.0
 51
90.0
  0
LINE
  8
APS_GEOMETRY
 10
0.69
 11
0.6875
 20
0.5625
 21
0.5625
  0
ARC
  8
APS_GEOMETRY
 10
0.090745
 20
0.842537
 40
0.659194
 50
334.860931
 51
43.545767
  0
ARC
  8
APS_GEOMETRY
 10
1.141568
 20
1.841325
 40
0.790567
 50
192.002762
 51
223.54567
  0
ARC
  8
APS_GEOMETRY
 10
2.215093
 20
2.069567
 40
1.888087
 50
172.687413
 51
192.002854
  0
LINE
  8
APS_GEOMETRY
 10
0.342363
 11
0.3125
 20
2.309887
 21
2.3125
  0
LINE
  8
APS_GEOMETRY
 10
0.3125
 11
0.3125
 20
2.3125
 21
2.948832
  0
ARC
  8
APS_GEOMETRY
 10
0.2825
 20
2.948832
 40
0.03
 50
0.0
 51
89.0
  0
LINE
  8
APS_GEOMETRY
 10
0.283024
 11
0.2625
 20
2.978827
 21
2.979186
  0
ARC
  8
APS_GEOMETRY
 10
0.15625
 20
3.09375
 40
0.15625
 50
312.843855
 51
89.999845
  0
LINE
  8
APS_GEOMETRY
 10
0.15625
 11
0.0
 20
3.25
 21
3.25
  0
LINE
  8
APS_GEOMETRY
 10
0.0
 11
0.0
 20
3.25
 21
2.5
  0
LINE
  8
APS_GEOMETRY
 10
0.0
 11
0.0325
 20
2.5
 21
2.5
  0
ARC
  8
APS_GEOMETRY
 10
0.0325
 20
2.47
 40
0.03
 50
0.0
 51
90.0
  0
LINE
  8
APS_GEOMETRY
 10
0.0625
 11
0.0625
 20
2.47
 21
0.78
  0
ARC
  8
APS_GEOMETRY
 10
0.0325
 20
0.78
 40
0.03
 50
270.0
 51
0.0
  0
LINE
  8
APS_GEOMETRY
 10
0.0325
 11
0.0
 20
0.75
 21
0.75
  0
LINE
  8
APS_GEOMETRY
 10
0.0
 11
0.0
 20
0.75
 21
0.0
  0
LINE
  8
APS_GEOMETRY
 10
0.0
 11
0.69
 20
0.0
 21
0.0
  0
LINE
  8
CONSTRUCTION
 10
0.152615
 11
0.10065
 20
-1.038482
 21
-1.166909
  0
LINE
  8
CONSTRUCTION
 10
0.10065
 11
0.20458
 20
-1.166909
 21
-1.166909
  0
LINE
  8
CONSTRUCTION
 10
0.20458
 11
0.152615
 20
-1.166909
 21
-1.038482
  0
LINE
  8
CONSTRUCTION
 10
0.152615
 11
0.559547
 20
-1.038482
 21
-1.03848
  0
LINE
  8
CONSTRUCTION
 10
0.559547
 11
0.507582
 20
-1.03848
 21
-1.166908
  0
LINE
  8
CONSTRUCTION
 10
0.507582
 11
0.611512
 20
-1.166908
 21
-1.166908
  0
LINE
  8
CONSTRUCTION
 10
0.611512
 11
0.559547
 20
-1.166908
 21
-1.03848
  0
LINE
  8
CONSTRUCTION
 10
0.559547
 11
0.966478
 20
-1.03848
 21
-1.03848
  0
LINE
  8
CONSTRUCTION
 10
0.966478
 11
0.914513
 20
-1.03848
 21
-1.166908
  0
LINE
  8
CONSTRUCTION
 10
0.914513
 11
1.018442
 20
-1.166908
 21
-1.166908
  0
LINE
  8
CONSTRUCTION
 10
1.018442
 11
0.966478
 20
-1.166908
 21
-1.03848
  0
LINE
  8
CONSTRUCTION
 10
0.966478
 11
1.373408
 20
-1.03848
 21
-1.03848
  0
LINE
  8
CONSTRUCTION
 10
1.373408
 11
1.321443
 20
-1.03848
 21
-1.166908
  0
LINE
  8
CONSTRUCTION
 10
1.321443
 11
1.425373
 20
-1.166908
 21
-1.166908
  0
LINE
  8
CONSTRUCTION
 10
1.425373
 11
1.373408
 20
-1.166908
 21
-1.03848
  0
LINE
  8
CONSTRUCTION
 10
1.373408
 11
1.780281
 20
-1.03848
 21
-1.038482
  0
LINE
  8
CONSTRUCTION
 10
1.780281
 11
1.728316
 20
-1.038482
 21
-1.166909
  0
LINE
  8
CONSTRUCTION
 10
1.728316
 11
1.832246
 20
-1.166909
 21
-1.166909
  0
LINE
  8
CONSTRUCTION
 10
1.832246
 11
1.780281
 20
-1.166909
 21
-1.038482
  0
LINE
  8
CONSTRUCTION
 10
0.0
 11
4.0
 20
-1.561751
 21
-1.561751
  0
TEXT
  8
TEXT
 10
0.10065
 20
-1.405784
 30
0.0
 40
0.224
 50
0.0
  1
DOVETAIL DESIGNS
  0
TEXT
  8
TEXT
 10
2.276036
 20
-1.551751
 30
0.0
 40
0.099
 50
0.0
  1
& MILLWORK INC.
  0
TEXT
  8
TEXT
 10
1.092458
 20
-1.640461
 30
0.0
 40
0.07
 50
0.0
  1
Established 1979
  0
TEXT
  8
TEXT
 10
0.1
 20
-1.8
 30
0.0
 40
0.1
 50
0.0
  1
Phone: (406) 248-5010    Website: www.dovetailmt.com
  0
TEXT
  8
TEXT
 10
0.0
 20
-0.5
 30
0.0
 40
0.1
 50
0.0
  1
3/4"x3-1/4"
  0
TEXT
  8
TEXT
 10
0.0
 20
-0.25
 30
0.0
 40
0.15625
 50
0.0
  1
CS110
  0
ENDSEC
  0
EOF
