  0
SECTION
  2
ENTITIES
  0
ARC
  8
APS_GEOMETRY
 10
-0.02625
 20
0.520888
 40
0.08875
 50
287.203906
 51
359.999865
  0
LINE
  8
APS_GEOMETRY
 10
0.0625
 11
0.0625
 20
0.520888
 21
2.344112
  0
ARC
  8
APS_GEOMETRY
 10
-0.02625
 20
2.344112
 40
0.08875
 50
0.0
 51
72.796094
  0
LINE
  8
APS_GEOMETRY
 10
0.0
 11
0.0
 20
2.428891
 21
3.0
  0
LINE
  8
APS_GEOMETRY
 10
0.0
 11
0.199666
 20
3.0
 21
3.0
  0
ARC
  8
APS_GEOMETRY
 10
0.831202
 20
3.041312
 40
0.632886
 50
183.742666
 51
244.011213
  0
ARC
  8
APS_GEOMETRY
 10
0.475
 20
2.310625
 40
0.18
 50
281.212367
 51
64.0113
  0
LINE
  8
APS_GEOMETRY
 10
0.51
 11
0.51
 20
2.134061
 21
2.0625
  0
LINE
  8
APS_GEOMETRY
 10
0.51
 11
0.655
 20
2.0625
 21
2.0625
  0
ARC
  8
APS_GEOMETRY
 10
0.655
 20
2.0275
 40
0.035
 50
0.0
 51
90.0
  0
LINE
  8
APS_GEOMETRY
 10
0.69
 11
0.69
 20
2.0275
 21
0.75
  0
LINE
  8
APS_GEOMETRY
 10
0.69
 11
0.725
 20
0.75
 21
0.75
  0
ARC
  8
APS_GEOMETRY
 10
0.725
 20
0.715
 40
0.035
 50
0.0
 51
90.0
  0
LINE
  8
APS_GEOMETRY
 10
0.76
 11
0.76
 20
0.715
 21
0.035
  0
ARC
  8
APS_GEOMETRY
 10
0.725
 20
0.035
 40
0.035
 50
270.0
 51
0.0
  0
LINE
  8
APS_GEOMETRY
 10
0.725
 11
0.0
 20
0.0
 21
0.0
  0
LINE
  8
APS_GEOMETRY
 10
0.0
 11
0.0
 20
0.0
 21
0.436109
  0
LINE
  8
CONSTRUCTION
 10
0.152615
 11
0.10065
 20
-1.038482
 21
-1.166909
  0
LINE
  8
CONSTRUCTION
 10
0.10065
 11
0.20458
 20
-1.166909
 21
-1.166909
  0
LINE
  8
CONSTRUCTION
 10
0.20458
 11
0.152615
 20
-1.166909
 21
-1.038482
  0
LINE
  8
CONSTRUCTION
 10
0.152615
 11
0.559547
 20
-1.038482
 21
-1.03848
  0
LINE
  8
CONSTRUCTION
 10
0.559547
 11
0.507582
 20
-1.03848
 21
-1.166908
  0
LINE
  8
CONSTRUCTION
 10
0.507582
 11
0.611512
 20
-1.166908
 21
-1.166908
  0
LINE
  8
CONSTRUCTION
 10
0.611512
 11
0.559547
 20
-1.166908
 21
-1.03848
  0
LINE
  8
CONSTRUCTION
 10
0.559547
 11
0.966478
 20
-1.03848
 21
-1.03848
  0
LINE
  8
CONSTRUCTION
 10
0.966478
 11
0.914513
 20
-1.03848
 21
-1.166908
  0
LINE
  8
CONSTRUCTION
 10
0.914513
 11
1.018442
 20
-1.166908
 21
-1.166908
  0
LINE
  8
CONSTRUCTION
 10
1.018442
 11
0.966478
 20
-1.166908
 21
-1.03848
  0
LINE
  8
CONSTRUCTION
 10
0.966478
 11
1.373408
 20
-1.03848
 21
-1.03848
  0
LINE
  8
CONSTRUCTION
 10
1.373408
 11
1.321443
 20
-1.03848
 21
-1.166908
  0
LINE
  8
CONSTRUCTION
 10
1.321443
 11
1.425373
 20
-1.166908
 21
-1.166908
  0
LINE
  8
CONSTRUCTION
 10
1.425373
 11
1.373408
 20
-1.166908
 21
-1.03848
  0
LINE
  8
CONSTRUCTION
 10
1.373408
 11
1.780281
 20
-1.03848
 21
-1.038482
  0
LINE
  8
CONSTRUCTION
 10
1.780281
 11
1.728316
 20
-1.038482
 21
-1.166909
  0
LINE
  8
CONSTRUCTION
 10
1.728316
 11
1.832246
 20
-1.166909
 21
-1.166909
  0
LINE
  8
CONSTRUCTION
 10
1.832246
 11
1.780281
 20
-1.166909
 21
-1.038482
  0
LINE
  8
CONSTRUCTION
 10
0.0
 11
4.0
 20
-1.561751
 21
-1.561751
  0
TEXT
  8
TEXT
 10
0.10065
 20
-1.405784
 30
0.0
 40
0.224
 50
0.0
  1
DOVETAIL DESIGNS
  0
TEXT
  8
TEXT
 10
2.276036
 20
-1.551751
 30
0.0
 40
0.099
 50
0.0
  1
& MILLWORK INC.
  0
TEXT
  8
TEXT
 10
1.092458
 20
-1.640461
 30
0.0
 40
0.07
 50
0.0
  1
Established 1979
  0
TEXT
  8
TEXT
 10
0.1
 20
-1.8
 30
0.0
 40
0.1
 50
0.0
  1
Phone: (406) 248-5010    Website: www.dovetailmt.com
  0
TEXT
  8
TEXT
 10
0.0
 20
-0.25
 30
0.0
 40
0.15625
 50
0.0
  1
CS109
  0
TEXT
  8
TEXT
 10
0.0
 20
-0.5
 30
0.0
 40
0.1
 50
0.0
  1
3/4"x3"
  0
ENDSEC
  0
EOF
