  0
SECTION
  2
ENTITIES
  0
LINE
  8
CONSTRUCTION
 10
0.152615
 11
0.10065
 20
-1.038482
 21
-1.166909
  0
LINE
  8
CONSTRUCTION
 10
0.10065
 11
0.20458
 20
-1.166909
 21
-1.166909
  0
LINE
  8
CONSTRUCTION
 10
0.20458
 11
0.152615
 20
-1.166909
 21
-1.038482
  0
LINE
  8
CONSTRUCTION
 10
0.152615
 11
0.559547
 20
-1.038482
 21
-1.03848
  0
LINE
  8
CONSTRUCTION
 10
0.559547
 11
0.507582
 20
-1.03848
 21
-1.166908
  0
LINE
  8
CONSTRUCTION
 10
0.507582
 11
0.611512
 20
-1.166908
 21
-1.166908
  0
LINE
  8
CONSTRUCTION
 10
0.611512
 11
0.559547
 20
-1.166908
 21
-1.03848
  0
LINE
  8
CONSTRUCTION
 10
0.559547
 11
0.966478
 20
-1.03848
 21
-1.03848
  0
LINE
  8
CONSTRUCTION
 10
0.966478
 11
0.914513
 20
-1.03848
 21
-1.166908
  0
LINE
  8
CONSTRUCTION
 10
0.914513
 11
1.018442
 20
-1.166908
 21
-1.166908
  0
LINE
  8
CONSTRUCTION
 10
1.018442
 11
0.966478
 20
-1.166908
 21
-1.03848
  0
LINE
  8
CONSTRUCTION
 10
0.966478
 11
1.373408
 20
-1.03848
 21
-1.03848
  0
LINE
  8
CONSTRUCTION
 10
1.373408
 11
1.321443
 20
-1.03848
 21
-1.166908
  0
LINE
  8
CONSTRUCTION
 10
1.321443
 11
1.425373
 20
-1.166908
 21
-1.166908
  0
LINE
  8
CONSTRUCTION
 10
1.425373
 11
1.373408
 20
-1.166908
 21
-1.03848
  0
LINE
  8
CONSTRUCTION
 10
1.373408
 11
1.780281
 20
-1.03848
 21
-1.038482
  0
LINE
  8
CONSTRUCTION
 10
1.780281
 11
1.728316
 20
-1.038482
 21
-1.166909
  0
LINE
  8
CONSTRUCTION
 10
1.728316
 11
1.832246
 20
-1.166909
 21
-1.166909
  0
LINE
  8
CONSTRUCTION
 10
1.832246
 11
1.780281
 20
-1.166909
 21
-1.038482
  0
LINE
  8
CONSTRUCTION
 10
0.0
 11
4.0
 20
-1.561751
 21
-1.561751
  0
LINE
  8
APS_GEOMETRY
 10
0.375451
 11
0.334545
 20
1.751445
 21
1.775138
  0
LINE
  8
APS_GEOMETRY
 10
0.334545
 11
0.345541
 20
1.775138
 21
2.507039
  0
ARC
  8
APS_GEOMETRY
 10
0.252741
 20
2.509127
 40
0.092823
 50
358.710936
 51
1.279229
  0
ARC
  8
APS_GEOMETRY
 10
0.275701
 20
2.509615
 40
0.069858
 50
1.299592
 51
33.621028
  0
ARC
  8
APS_GEOMETRY
 10
0.248999
 20
2.491873
 40
0.101917
 50
33.614941
 51
56.991193
  0
ARC
  8
APS_GEOMETRY
 10
3.748794
 20
7.875857
 40
6.319598
 50
236.384154
 51
236.974333
  0
ARC
  8
APS_GEOMETRY
 10
0.279634
 20
2.64218
 40
0.041431
 50
181.510684
 51
224.583164
  0
ARC
  8
APS_GEOMETRY
 10
0.283941
 20
2.642251
 40
0.045738
 50
144.262076
 51
181.458177
  0
ARC
  8
APS_GEOMETRY
 10
0.285941
 20
2.640832
 40
0.04819
 50
128.867143
 51
144.281184
  0
ARC
  8
APS_GEOMETRY
 10
0.165638
 20
2.790079
 40
0.143506
 50
308.872412
 51
321.506503
  0
ARC
  8
APS_GEOMETRY
 10
0.138291
 20
2.811867
 40
0.178471
 50
321.496431
 51
345.647927
  0
ARC
  8
APS_GEOMETRY
 10
0.206446
 20
2.794414
 40
0.108117
 50
345.655344
 51
9.845418
  0
ARC
  8
APS_GEOMETRY
 10
0.186345
 20
2.79088
 40
0.128526
 50
9.865498
 51
39.31609
  0
ARC
  8
APS_GEOMETRY
 10
0.118152
 20
2.735125
 40
0.216611
 50
39.297095
 51
49.253405
  0
ARC
  8
APS_GEOMETRY
 10
-1.237103
 20
1.162387
 40
2.292718
 50
49.248481
 51
49.912773
  0
ARC
  8
APS_GEOMETRY
 10
0.381405
 20
3.085423
 40
0.220773
 50
204.485925
 51
229.93371
  0
ARC
  8
APS_GEOMETRY
 10
0.379997
 20
3.084743
 40
0.21921
 50
178.907047
 51
204.476817
  0
ARC
  8
APS_GEOMETRY
 10
2.625801
 20
3.041707
 40
2.465426
 50
178.33927
 51
178.902622
  0
ARC
  8
APS_GEOMETRY
 10
0.010706
 20
3.117529
 40
0.150768
 50
358.33893
 51
14.204169
  0
ARC
  8
APS_GEOMETRY
 10
0.044815
 20
3.126134
 40
0.11559
 50
14.217841
 51
39.514814
  0
ARC
  8
APS_GEOMETRY
 10
0.043994
 20
3.125455
 40
0.116656
 50
39.515439
 51
64.656306
  0
ARC
  8
APS_GEOMETRY
 10
0.003822
 20
3.040666
 40
0.21048
 50
64.653003
 51
91.040102
  0
LINE
  8
APS_GEOMETRY
 10
0.000001
 11
0.0
 20
3.251111
 21
0.0
  0
LINE
  8
APS_GEOMETRY
 10
0.0
 11
0.545557
 20
0.0
 21
0.0
  0
ARC
  8
APS_GEOMETRY
 10
0.539939
 20
0.027476
 40
0.028045
 50
281.556658
 51
290.109267
  0
ARC
  8
APS_GEOMETRY
 10
0.531865
 20
0.049527
 40
0.051528
 50
290.109538
 51
303.757391
  0
ARC
  8
APS_GEOMETRY
 10
0.520655
 20
0.066299
 40
0.071701
 50
303.757859
 51
313.351311
  0
ARC
  8
APS_GEOMETRY
 10
0.488476
 20
0.10037
 40
0.118566
 50
313.35649
 51
320.555252
  0
ARC
  8
APS_GEOMETRY
 10
0.460911
 20
0.123068
 40
0.154273
 50
320.549369
 51
331.771486
  0
ARC
  8
APS_GEOMETRY
 10
0.462991
 20
0.121947
 40
0.151911
 50
331.772833
 51
343.008962
  0
ARC
  8
APS_GEOMETRY
 10
0.499168
 20
0.110885
 40
0.11408
 50
343.012677
 51
350.304017
  0
ARC
  8
APS_GEOMETRY
 10
0.547134
 20
0.1027
 40
0.065421
 50
350.295347
 51
0.238999
  0
LINE
  8
APS_GEOMETRY
 10
0.612554
 11
0.624992
 20
0.102973
 21
0.507144
  0
LINE
  8
APS_GEOMETRY
 10
0.624992
 11
0.624879
 20
0.507144
 21
0.508272
  0
LINE
  8
APS_GEOMETRY
 10
0.624879
 11
0.624751
 20
0.508272
 21
0.509386
  0
LINE
  8
APS_GEOMETRY
 10
0.624751
 11
0.624609
 20
0.509386
 21
0.510484
  0
LINE
  8
APS_GEOMETRY
 10
0.624609
 11
0.624454
 20
0.510484
 21
0.511569
  0
LINE
  8
APS_GEOMETRY
 10
0.624454
 11
0.624284
 20
0.511569
 21
0.512638
  0
LINE
  8
APS_GEOMETRY
 10
0.624284
 11
0.6241
 20
0.512638
 21
0.513694
  0
LINE
  8
APS_GEOMETRY
 10
0.6241
 11
0.623902
 20
0.513694
 21
0.514735
  0
LINE
  8
APS_GEOMETRY
 10
0.623902
 11
0.623691
 20
0.514735
 21
0.515762
  0
LINE
  8
APS_GEOMETRY
 10
0.623691
 11
0.623467
 20
0.515762
 21
0.516775
  0
LINE
  8
APS_GEOMETRY
 10
0.623467
 11
0.623229
 20
0.516775
 21
0.517775
  0
LINE
  8
APS_GEOMETRY
 10
0.623229
 11
0.622977
 20
0.517775
 21
0.518761
  0
LINE
  8
APS_GEOMETRY
 10
0.622977
 11
0.622713
 20
0.518761
 21
0.519733
  0
ARC
  8
APS_GEOMETRY
 10
0.570966
 20
0.507469
 40
0.053181
 50
13.333292
 51
64.134991
  0
LINE
  8
APS_GEOMETRY
 10
0.594166
 11
0.506521
 20
0.555322
 21
0.597814
  0
LINE
  8
APS_GEOMETRY
 10
0.506521
 11
0.508043
 20
0.597814
 21
0.601273
  0
LINE
  8
APS_GEOMETRY
 10
0.508043
 11
0.509548
 20
0.601273
 21
0.604716
  0
LINE
  8
APS_GEOMETRY
 10
0.509548
 11
0.511036
 20
0.604716
 21
0.608141
  0
LINE
  8
APS_GEOMETRY
 10
0.511036
 11
0.512507
 20
0.608141
 21
0.61155
  0
LINE
  8
APS_GEOMETRY
 10
0.512507
 11
0.513961
 20
0.61155
 21
0.614942
  0
LINE
  8
APS_GEOMETRY
 10
0.513961
 11
0.515399
 20
0.614942
 21
0.618317
  0
LINE
  8
APS_GEOMETRY
 10
0.515399
 11
0.51682
 20
0.618317
 21
0.621676
  0
LINE
  8
APS_GEOMETRY
 10
0.51682
 11
0.518225
 20
0.621676
 21
0.625018
  0
LINE
  8
APS_GEOMETRY
 10
0.518225
 11
0.519613
 20
0.625018
 21
0.628344
  0
LINE
  8
APS_GEOMETRY
 10
0.519613
 11
0.520984
 20
0.628344
 21
0.631654
  0
LINE
  8
APS_GEOMETRY
 10
0.520984
 11
0.52234
 20
0.631654
 21
0.634947
  0
LINE
  8
APS_GEOMETRY
 10
0.52234
 11
0.523678
 20
0.634947
 21
0.638224
  0
LINE
  8
APS_GEOMETRY
 10
0.523678
 11
0.525001
 20
0.638224
 21
0.641485
  0
LINE
  8
APS_GEOMETRY
 10
0.525001
 11
0.526307
 20
0.641485
 21
0.64473
  0
LINE
  8
APS_GEOMETRY
 10
0.526307
 11
0.527598
 20
0.64473
 21
0.647959
  0
LINE
  8
APS_GEOMETRY
 10
0.527598
 11
0.528872
 20
0.647959
 21
0.651171
  0
LINE
  8
APS_GEOMETRY
 10
0.528872
 11
0.53013
 20
0.651171
 21
0.654368
  0
LINE
  8
APS_GEOMETRY
 10
0.53013
 11
0.531372
 20
0.654368
 21
0.65755
  0
LINE
  8
APS_GEOMETRY
 10
0.531372
 11
0.532598
 20
0.65755
 21
0.660715
  0
LINE
  8
APS_GEOMETRY
 10
0.532598
 11
0.533809
 20
0.660715
 21
0.663865
  0
LINE
  8
APS_GEOMETRY
 10
0.533809
 11
0.535003
 20
0.663865
 21
0.666999
  0
LINE
  8
APS_GEOMETRY
 10
0.535003
 11
0.536182
 20
0.666999
 21
0.670118
  0
LINE
  8
APS_GEOMETRY
 10
0.536182
 11
0.537345
 20
0.670118
 21
0.673221
  0
LINE
  8
APS_GEOMETRY
 10
0.537345
 11
0.538493
 20
0.673221
 21
0.676308
  0
LINE
  8
APS_GEOMETRY
 10
0.538493
 11
0.539625
 20
0.676308
 21
0.679381
  0
LINE
  8
APS_GEOMETRY
 10
0.539625
 11
0.540741
 20
0.679381
 21
0.682438
  0
LINE
  8
APS_GEOMETRY
 10
0.540741
 11
0.541842
 20
0.682438
 21
0.68548
  0
LINE
  8
APS_GEOMETRY
 10
0.541842
 11
0.542928
 20
0.68548
 21
0.688507
  0
LINE
  8
APS_GEOMETRY
 10
0.542928
 11
0.543998
 20
0.688507
 21
0.691518
  0
LINE
  8
APS_GEOMETRY
 10
0.543998
 11
0.545053
 20
0.691518
 21
0.694515
  0
LINE
  8
APS_GEOMETRY
 10
0.545053
 11
0.546093
 20
0.694515
 21
0.697497
  0
LINE
  8
APS_GEOMETRY
 10
0.546093
 11
0.547118
 20
0.697497
 21
0.700464
  0
LINE
  8
APS_GEOMETRY
 10
0.547118
 11
0.548128
 20
0.700464
 21
0.703416
  0
LINE
  8
APS_GEOMETRY
 10
0.548128
 11
0.549122
 20
0.703416
 21
0.706354
  0
LINE
  8
APS_GEOMETRY
 10
0.549122
 11
0.550102
 20
0.706354
 21
0.709276
  0
LINE
  8
APS_GEOMETRY
 10
0.550102
 11
0.551067
 20
0.709276
 21
0.712185
  0
LINE
  8
APS_GEOMETRY
 10
0.551067
 11
0.552017
 20
0.712185
 21
0.715078
  0
LINE
  8
APS_GEOMETRY
 10
0.552017
 11
0.552952
 20
0.715078
 21
0.717957
  0
LINE
  8
APS_GEOMETRY
 10
0.552952
 11
0.553872
 20
0.717957
 21
0.720822
  0
LINE
  8
APS_GEOMETRY
 10
0.553872
 11
0.554778
 20
0.720822
 21
0.723673
  0
LINE
  8
APS_GEOMETRY
 10
0.554778
 11
0.555669
 20
0.723673
 21
0.726509
  0
LINE
  8
APS_GEOMETRY
 10
0.555669
 11
0.556546
 20
0.726509
 21
0.729331
  0
LINE
  8
APS_GEOMETRY
 10
0.556546
 11
0.557408
 20
0.729331
 21
0.732139
  0
LINE
  8
APS_GEOMETRY
 10
0.557408
 11
0.558256
 20
0.732139
 21
0.734933
  0
LINE
  8
APS_GEOMETRY
 10
0.558256
 11
0.559089
 20
0.734933
 21
0.737713
  0
LINE
  8
APS_GEOMETRY
 10
0.559089
 11
0.559908
 20
0.737713
 21
0.740479
  0
LINE
  8
APS_GEOMETRY
 10
0.559908
 11
0.560713
 20
0.740479
 21
0.743232
  0
LINE
  8
APS_GEOMETRY
 10
0.560713
 11
0.561504
 20
0.743232
 21
0.74597
  0
LINE
  8
APS_GEOMETRY
 10
0.561504
 11
0.56228
 20
0.74597
 21
0.748695
  0
LINE
  8
APS_GEOMETRY
 10
0.56228
 11
0.563042
 20
0.748695
 21
0.751406
  0
LINE
  8
APS_GEOMETRY
 10
0.563042
 11
0.563791
 20
0.751406
 21
0.754104
  0
LINE
  8
APS_GEOMETRY
 10
0.563791
 11
0.564525
 20
0.754104
 21
0.756788
  0
LINE
  8
APS_GEOMETRY
 10
0.564525
 11
0.565246
 20
0.756788
 21
0.759459
  0
LINE
  8
APS_GEOMETRY
 10
0.565246
 11
0.565953
 20
0.759459
 21
0.762116
  0
LINE
  8
APS_GEOMETRY
 10
0.565953
 11
0.566646
 20
0.762116
 21
0.76476
  0
LINE
  8
APS_GEOMETRY
 10
0.566646
 11
0.567325
 20
0.76476
 21
0.767391
  0
LINE
  8
APS_GEOMETRY
 10
0.567325
 11
0.56799
 20
0.767391
 21
0.770008
  0
LINE
  8
APS_GEOMETRY
 10
0.56799
 11
0.568642
 20
0.770008
 21
0.772613
  0
LINE
  8
APS_GEOMETRY
 10
0.568642
 11
0.569281
 20
0.772613
 21
0.775205
  0
LINE
  8
APS_GEOMETRY
 10
0.569281
 11
0.569906
 20
0.775205
 21
0.777783
  0
LINE
  8
APS_GEOMETRY
 10
0.569906
 11
0.570517
 20
0.777783
 21
0.780349
  0
LINE
  8
APS_GEOMETRY
 10
0.570517
 11
0.571116
 20
0.780349
 21
0.782902
  0
LINE
  8
APS_GEOMETRY
 10
0.571116
 11
0.571701
 20
0.782902
 21
0.785442
  0
LINE
  8
APS_GEOMETRY
 10
0.571701
 11
0.572272
 20
0.785442
 21
0.787969
  0
LINE
  8
APS_GEOMETRY
 10
0.572272
 11
0.572831
 20
0.787969
 21
0.790484
  0
LINE
  8
APS_GEOMETRY
 10
0.572831
 11
0.573376
 20
0.790484
 21
0.792987
  0
LINE
  8
APS_GEOMETRY
 10
0.573376
 11
0.573908
 20
0.792987
 21
0.795476
  0
LINE
  8
APS_GEOMETRY
 10
0.573908
 11
0.574428
 20
0.795476
 21
0.797954
  0
LINE
  8
APS_GEOMETRY
 10
0.574428
 11
0.574934
 20
0.797954
 21
0.800419
  0
LINE
  8
APS_GEOMETRY
 10
0.574934
 11
0.575428
 20
0.800419
 21
0.802872
  0
LINE
  8
APS_GEOMETRY
 10
0.575428
 11
0.575908
 20
0.802872
 21
0.805312
  0
LINE
  8
APS_GEOMETRY
 10
0.575908
 11
0.576376
 20
0.805312
 21
0.807741
  0
LINE
  8
APS_GEOMETRY
 10
0.576376
 11
0.576831
 20
0.807741
 21
0.810157
  0
LINE
  8
APS_GEOMETRY
 10
0.576831
 11
0.577274
 20
0.810157
 21
0.812562
  0
LINE
  8
APS_GEOMETRY
 10
0.577274
 11
0.577704
 20
0.812562
 21
0.814954
  0
LINE
  8
APS_GEOMETRY
 10
0.577704
 11
0.578122
 20
0.814954
 21
0.817335
  0
LINE
  8
APS_GEOMETRY
 10
0.578122
 11
0.578527
 20
0.817335
 21
0.819704
  0
LINE
  8
APS_GEOMETRY
 10
0.578527
 11
0.578919
 20
0.819704
 21
0.822061
  0
LINE
  8
APS_GEOMETRY
 10
0.578919
 11
0.579299
 20
0.822061
 21
0.824406
  0
LINE
  8
APS_GEOMETRY
 10
0.579299
 11
0.579667
 20
0.824406
 21
0.82674
  0
LINE
  8
APS_GEOMETRY
 10
0.579667
 11
0.580023
 20
0.82674
 21
0.829063
  0
LINE
  8
APS_GEOMETRY
 10
0.580023
 11
0.580367
 20
0.829063
 21
0.831374
  0
LINE
  8
APS_GEOMETRY
 10
0.580367
 11
0.580698
 20
0.831374
 21
0.833673
  0
LINE
  8
APS_GEOMETRY
 10
0.580698
 11
0.581018
 20
0.833673
 21
0.835961
  0
LINE
  8
APS_GEOMETRY
 10
0.581018
 11
0.581325
 20
0.835961
 21
0.838238
  0
LINE
  8
APS_GEOMETRY
 10
0.581325
 11
0.581621
 20
0.838238
 21
0.840504
  0
LINE
  8
APS_GEOMETRY
 10
0.581621
 11
0.581904
 20
0.840504
 21
0.842759
  0
LINE
  8
APS_GEOMETRY
 10
0.581904
 11
0.582176
 20
0.842759
 21
0.845002
  0
LINE
  8
APS_GEOMETRY
 10
0.582176
 11
0.582436
 20
0.845002
 21
0.847235
  0
LINE
  8
APS_GEOMETRY
 10
0.582436
 11
0.582685
 20
0.847235
 21
0.849457
  0
LINE
  8
APS_GEOMETRY
 10
0.582685
 11
0.582921
 20
0.849457
 21
0.851668
  0
LINE
  8
APS_GEOMETRY
 10
0.582921
 11
0.583147
 20
0.851668
 21
0.853868
  0
LINE
  8
APS_GEOMETRY
 10
0.583147
 11
0.58336
 20
0.853868
 21
0.856057
  0
LINE
  8
APS_GEOMETRY
 10
0.58336
 11
0.583563
 20
0.856057
 21
0.858236
  0
LINE
  8
APS_GEOMETRY
 10
0.583563
 11
0.583753
 20
0.858236
 21
0.860404
  0
LINE
  8
APS_GEOMETRY
 10
0.583753
 11
0.583933
 20
0.860404
 21
0.862562
  0
LINE
  8
APS_GEOMETRY
 10
0.583933
 11
0.584101
 20
0.862562
 21
0.864709
  0
LINE
  8
APS_GEOMETRY
 10
0.584101
 11
0.584258
 20
0.864709
 21
0.866846
  0
LINE
  8
APS_GEOMETRY
 10
0.584258
 11
0.584404
 20
0.866846
 21
0.868973
  0
LINE
  8
APS_GEOMETRY
 10
0.584404
 11
0.584539
 20
0.868973
 21
0.871089
  0
LINE
  8
APS_GEOMETRY
 10
0.584539
 11
0.584663
 20
0.871089
 21
0.873195
  0
LINE
  8
APS_GEOMETRY
 10
0.584663
 11
0.584775
 20
0.873195
 21
0.875291
  0
LINE
  8
APS_GEOMETRY
 10
0.584775
 11
0.584877
 20
0.875291
 21
0.877377
  0
LINE
  8
APS_GEOMETRY
 10
0.584877
 11
0.584968
 20
0.877377
 21
0.879454
  0
LINE
  8
APS_GEOMETRY
 10
0.584968
 11
0.585048
 20
0.879454
 21
0.88152
  0
LINE
  8
APS_GEOMETRY
 10
0.585048
 11
0.585118
 20
0.88152
 21
0.883576
  0
LINE
  8
APS_GEOMETRY
 10
0.585118
 11
0.585177
 20
0.883576
 21
0.885623
  0
LINE
  8
APS_GEOMETRY
 10
0.585177
 11
0.585225
 20
0.885623
 21
0.88766
  0
LINE
  8
APS_GEOMETRY
 10
0.585225
 11
0.585262
 20
0.88766
 21
0.889687
  0
LINE
  8
APS_GEOMETRY
 10
0.585262
 11
0.58529
 20
0.889687
 21
0.891705
  0
LINE
  8
APS_GEOMETRY
 10
0.58529
 11
0.585306
 20
0.891705
 21
0.893714
  0
LINE
  8
APS_GEOMETRY
 10
0.585306
 11
0.585312
 20
0.893714
 21
0.895713
  0
LINE
  8
APS_GEOMETRY
 10
0.585312
 11
0.585308
 20
0.895713
 21
0.897702
  0
LINE
  8
APS_GEOMETRY
 10
0.585308
 11
0.585294
 20
0.897702
 21
0.899683
  0
LINE
  8
APS_GEOMETRY
 10
0.585294
 11
0.58527
 20
0.899683
 21
0.901654
  0
LINE
  8
APS_GEOMETRY
 10
0.58527
 11
0.585235
 20
0.901654
 21
0.903616
  0
LINE
  8
APS_GEOMETRY
 10
0.585235
 11
0.58519
 20
0.903616
 21
0.905569
  0
LINE
  8
APS_GEOMETRY
 10
0.58519
 11
0.585135
 20
0.905569
 21
0.907513
  0
LINE
  8
APS_GEOMETRY
 10
0.585135
 11
0.585071
 20
0.907513
 21
0.909448
  0
LINE
  8
APS_GEOMETRY
 10
0.585071
 11
0.584996
 20
0.909448
 21
0.911374
  0
LINE
  8
APS_GEOMETRY
 10
0.584996
 11
0.584912
 20
0.911374
 21
0.913291
  0
LINE
  8
APS_GEOMETRY
 10
0.584912
 11
0.584817
 20
0.913291
 21
0.9152
  0
LINE
  8
APS_GEOMETRY
 10
0.584817
 11
0.584713
 20
0.9152
 21
0.9171
  0
LINE
  8
APS_GEOMETRY
 10
0.584713
 11
0.5846
 20
0.9171
 21
0.918991
  0
LINE
  8
APS_GEOMETRY
 10
0.5846
 11
0.584476
 20
0.918991
 21
0.920874
  0
LINE
  8
APS_GEOMETRY
 10
0.584476
 11
0.584344
 20
0.920874
 21
0.922748
  0
LINE
  8
APS_GEOMETRY
 10
0.584344
 11
0.584201
 20
0.922748
 21
0.924614
  0
LINE
  8
APS_GEOMETRY
 10
0.584201
 11
0.58405
 20
0.924614
 21
0.926472
  0
LINE
  8
APS_GEOMETRY
 10
0.58405
 11
0.583888
 20
0.926472
 21
0.928321
  0
LINE
  8
APS_GEOMETRY
 10
0.583888
 11
0.583718
 20
0.928321
 21
0.930163
  0
LINE
  8
APS_GEOMETRY
 10
0.583718
 11
0.583538
 20
0.930163
 21
0.931996
  0
LINE
  8
APS_GEOMETRY
 10
0.583538
 11
0.58335
 20
0.931996
 21
0.933821
  0
LINE
  8
APS_GEOMETRY
 10
0.58335
 11
0.583152
 20
0.933821
 21
0.935638
  0
LINE
  8
APS_GEOMETRY
 10
0.583152
 11
0.582944
 20
0.935638
 21
0.937447
  0
LINE
  8
APS_GEOMETRY
 10
0.582944
 11
0.582728
 20
0.937447
 21
0.939248
  0
LINE
  8
APS_GEOMETRY
 10
0.582728
 11
0.582503
 20
0.939248
 21
0.941042
  0
LINE
  8
APS_GEOMETRY
 10
0.582503
 11
0.582269
 20
0.941042
 21
0.942828
  0
LINE
  8
APS_GEOMETRY
 10
0.582269
 11
0.582027
 20
0.942828
 21
0.944606
  0
LINE
  8
APS_GEOMETRY
 10
0.582027
 11
0.581775
 20
0.944606
 21
0.946377
  0
LINE
  8
APS_GEOMETRY
 10
0.581775
 11
0.581515
 20
0.946377
 21
0.94814
  0
LINE
  8
APS_GEOMETRY
 10
0.581515
 11
0.581246
 20
0.94814
 21
0.949895
  0
LINE
  8
APS_GEOMETRY
 10
0.581246
 11
0.580968
 20
0.949895
 21
0.951644
  0
LINE
  8
APS_GEOMETRY
 10
0.580968
 11
0.580682
 20
0.951644
 21
0.953385
  0
LINE
  8
APS_GEOMETRY
 10
0.580682
 11
0.580388
 20
0.953385
 21
0.955119
  0
LINE
  8
APS_GEOMETRY
 10
0.580388
 11
0.580085
 20
0.955119
 21
0.956845
  0
LINE
  8
APS_GEOMETRY
 10
0.580085
 11
0.579774
 20
0.956845
 21
0.958565
  0
LINE
  8
APS_GEOMETRY
 10
0.579774
 11
0.579454
 20
0.958565
 21
0.960277
  0
LINE
  8
APS_GEOMETRY
 10
0.579454
 11
0.579126
 20
0.960277
 21
0.961983
  0
LINE
  8
APS_GEOMETRY
 10
0.579126
 11
0.57879
 20
0.961983
 21
0.963681
  0
LINE
  8
APS_GEOMETRY
 10
0.57879
 11
0.578446
 20
0.963681
 21
0.965373
  0
LINE
  8
APS_GEOMETRY
 10
0.578446
 11
0.578094
 20
0.965373
 21
0.967058
  0
LINE
  8
APS_GEOMETRY
 10
0.578094
 11
0.577734
 20
0.967058
 21
0.968737
  0
LINE
  8
APS_GEOMETRY
 10
0.577734
 11
0.577366
 20
0.968737
 21
0.970408
  0
LINE
  8
APS_GEOMETRY
 10
0.577366
 11
0.57699
 20
0.970408
 21
0.972074
  0
LINE
  8
APS_GEOMETRY
 10
0.57699
 11
0.576606
 20
0.972074
 21
0.973732
  0
LINE
  8
APS_GEOMETRY
 10
0.576606
 11
0.576214
 20
0.973732
 21
0.975385
  0
LINE
  8
APS_GEOMETRY
 10
0.576214
 11
0.575815
 20
0.975385
 21
0.977031
  0
LINE
  8
APS_GEOMETRY
 10
0.575815
 11
0.575408
 20
0.977031
 21
0.97867
  0
LINE
  8
APS_GEOMETRY
 10
0.575408
 11
0.574993
 20
0.97867
 21
0.980304
  0
LINE
  8
APS_GEOMETRY
 10
0.574993
 11
0.574571
 20
0.980304
 21
0.981931
  0
LINE
  8
APS_GEOMETRY
 10
0.574571
 11
0.574142
 20
0.981931
 21
0.983553
  0
LINE
  8
APS_GEOMETRY
 10
0.574142
 11
0.573705
 20
0.983553
 21
0.985168
  0
LINE
  8
APS_GEOMETRY
 10
0.573705
 11
0.57326
 20
0.985168
 21
0.986777
  0
LINE
  8
APS_GEOMETRY
 10
0.57326
 11
0.572809
 20
0.986777
 21
0.988381
  0
LINE
  8
APS_GEOMETRY
 10
0.572809
 11
0.57235
 20
0.988381
 21
0.989978
  0
LINE
  8
APS_GEOMETRY
 10
0.57235
 11
0.571884
 20
0.989978
 21
0.99157
  0
LINE
  8
APS_GEOMETRY
 10
0.571884
 11
0.571411
 20
0.99157
 21
0.993156
  0
LINE
  8
APS_GEOMETRY
 10
0.571411
 11
0.570931
 20
0.993156
 21
0.994737
  0
LINE
  8
APS_GEOMETRY
 10
0.570931
 11
0.570444
 20
0.994737
 21
0.996312
  0
LINE
  8
APS_GEOMETRY
 10
0.570444
 11
0.56995
 20
0.996312
 21
0.997882
  0
LINE
  8
APS_GEOMETRY
 10
0.56995
 11
0.569449
 20
0.997882
 21
0.999446
  0
LINE
  8
APS_GEOMETRY
 10
0.569449
 11
0.568941
 20
0.999446
 21
1.001005
  0
LINE
  8
APS_GEOMETRY
 10
0.568941
 11
0.568426
 20
1.001005
 21
1.002559
  0
LINE
  8
APS_GEOMETRY
 10
0.568426
 11
0.567905
 20
1.002559
 21
1.004107
  0
LINE
  8
APS_GEOMETRY
 10
0.567905
 11
0.567377
 20
1.004107
 21
1.005651
  0
LINE
  8
APS_GEOMETRY
 10
0.567377
 11
0.566843
 20
1.005651
 21
1.007189
  0
LINE
  8
APS_GEOMETRY
 10
0.566843
 11
0.566302
 20
1.007189
 21
1.008722
  0
LINE
  8
APS_GEOMETRY
 10
0.566302
 11
0.565755
 20
1.008722
 21
1.010251
  0
LINE
  8
APS_GEOMETRY
 10
0.565755
 11
0.565201
 20
1.010251
 21
1.011774
  0
LINE
  8
APS_GEOMETRY
 10
0.565201
 11
0.564641
 20
1.011774
 21
1.013293
  0
LINE
  8
APS_GEOMETRY
 10
0.564641
 11
0.564075
 20
1.013293
 21
1.014807
  0
LINE
  8
APS_GEOMETRY
 10
0.564075
 11
0.563502
 20
1.014807
 21
1.016317
  0
LINE
  8
APS_GEOMETRY
 10
0.563502
 11
0.562923
 20
1.016317
 21
1.017822
  0
LINE
  8
APS_GEOMETRY
 10
0.562923
 11
0.562338
 20
1.017822
 21
1.019322
  0
LINE
  8
APS_GEOMETRY
 10
0.562338
 11
0.561151
 20
1.019322
 21
1.022309
  0
LINE
  8
APS_GEOMETRY
 10
0.561151
 11
0.559939
 20
1.022309
 21
1.02528
  0
LINE
  8
APS_GEOMETRY
 10
0.559939
 11
0.558704
 20
1.02528
 21
1.028233
  0
LINE
  8
APS_GEOMETRY
 10
0.558704
 11
0.557447
 20
1.028233
 21
1.031171
  0
LINE
  8
APS_GEOMETRY
 10
0.557447
 11
0.556168
 20
1.031171
 21
1.034093
  0
LINE
  8
APS_GEOMETRY
 10
0.556168
 11
0.554866
 20
1.034093
 21
1.037
  0
LINE
  8
APS_GEOMETRY
 10
0.554866
 11
0.553543
 20
1.037
 21
1.039892
  0
LINE
  8
APS_GEOMETRY
 10
0.553543
 11
0.5522
 20
1.039892
 21
1.04277
  0
LINE
  8
APS_GEOMETRY
 10
0.5522
 11
0.550836
 20
1.04277
 21
1.045635
  0
LINE
  8
APS_GEOMETRY
 10
0.550836
 11
0.549452
 20
1.045635
 21
1.048487
  0
LINE
  8
APS_GEOMETRY
 10
0.549452
 11
0.548049
 20
1.048487
 21
1.051327
  0
LINE
  8
APS_GEOMETRY
 10
0.548049
 11
0.546627
 20
1.051327
 21
1.054155
  0
LINE
  8
APS_GEOMETRY
 10
0.546627
 11
0.545187
 20
1.054155
 21
1.056972
  0
LINE
  8
APS_GEOMETRY
 10
0.545187
 11
0.543728
 20
1.056972
 21
1.059778
  0
LINE
  8
APS_GEOMETRY
 10
0.543728
 11
0.542252
 20
1.059778
 21
1.062574
  0
LINE
  8
APS_GEOMETRY
 10
0.542252
 11
0.540759
 20
1.062574
 21
1.065361
  0
LINE
  8
APS_GEOMETRY
 10
0.540759
 11
0.53925
 20
1.065361
 21
1.068138
  0
LINE
  8
APS_GEOMETRY
 10
0.53925
 11
0.537724
 20
1.068138
 21
1.070907
  0
LINE
  8
APS_GEOMETRY
 10
0.537724
 11
0.536183
 20
1.070907
 21
1.073668
  0
LINE
  8
APS_GEOMETRY
 10
0.536183
 11
0.534627
 20
1.073668
 21
1.076422
  0
LINE
  8
APS_GEOMETRY
 10
0.534627
 11
0.533056
 20
1.076422
 21
1.079168
  0
LINE
  8
APS_GEOMETRY
 10
0.533056
 11
0.53147
 20
1.079168
 21
1.081909
  0
LINE
  8
APS_GEOMETRY
 10
0.53147
 11
0.529872
 20
1.081909
 21
1.084643
  0
LINE
  8
APS_GEOMETRY
 10
0.529872
 11
0.52826
 20
1.084643
 21
1.087373
  0
LINE
  8
APS_GEOMETRY
 10
0.52826
 11
0.526635
 20
1.087373
 21
1.090097
  0
LINE
  8
APS_GEOMETRY
 10
0.526635
 11
0.524998
 20
1.090097
 21
1.092818
  0
LINE
  8
APS_GEOMETRY
 10
0.524998
 11
0.523349
 20
1.092818
 21
1.095535
  0
LINE
  8
APS_GEOMETRY
 10
0.523349
 11
0.521689
 20
1.095535
 21
1.098248
  0
LINE
  8
APS_GEOMETRY
 10
0.521689
 11
0.520018
 20
1.098248
 21
1.10096
  0
LINE
  8
APS_GEOMETRY
 10
0.520018
 11
0.518337
 20
1.10096
 21
1.103669
  0
LINE
  8
APS_GEOMETRY
 10
0.518337
 11
0.516646
 20
1.103669
 21
1.106377
  0
LINE
  8
APS_GEOMETRY
 10
0.516646
 11
0.514945
 20
1.106377
 21
1.109084
  0
LINE
  8
APS_GEOMETRY
 10
0.514945
 11
0.511518
 20
1.109084
 21
1.114498
  0
LINE
  8
APS_GEOMETRY
 10
0.511518
 11
0.508059
 20
1.114498
 21
1.119915
  0
LINE
  8
APS_GEOMETRY
 10
0.508059
 11
0.504571
 20
1.119915
 21
1.125339
  0
LINE
  8
APS_GEOMETRY
 10
0.504571
 11
0.50106
 20
1.125339
 21
1.130775
  0
LINE
  8
APS_GEOMETRY
 10
0.50106
 11
0.493979
 20
1.130775
 21
1.1417
  0
LINE
  8
APS_GEOMETRY
 10
0.493979
 11
0.490417
 20
1.1417
 21
1.147197
  0
LINE
  8
APS_GEOMETRY
 10
0.490417
 11
0.486846
 20
1.147197
 21
1.152724
  0
LINE
  8
APS_GEOMETRY
 10
0.486846
 11
0.48327
 20
1.152724
 21
1.158284
  0
LINE
  8
APS_GEOMETRY
 10
0.48327
 11
0.479693
 20
1.158284
 21
1.163882
  0
LINE
  8
APS_GEOMETRY
 10
0.479693
 11
0.476118
 20
1.163882
 21
1.169522
  0
LINE
  8
APS_GEOMETRY
 10
0.476118
 11
0.474332
 20
1.169522
 21
1.172359
  0
LINE
  8
APS_GEOMETRY
 10
0.474332
 11
0.472549
 20
1.172359
 21
1.175209
  0
LINE
  8
APS_GEOMETRY
 10
0.472549
 11
0.470768
 20
1.175209
 21
1.178071
  0
LINE
  8
APS_GEOMETRY
 10
0.470768
 11
0.46899
 20
1.178071
 21
1.180947
  0
LINE
  8
APS_GEOMETRY
 10
0.46899
 11
0.467215
 20
1.180947
 21
1.183836
  0
LINE
  8
APS_GEOMETRY
 10
0.467215
 11
0.465444
 20
1.183836
 21
1.18674
  0
LINE
  8
APS_GEOMETRY
 10
0.465444
 11
0.463678
 20
1.18674
 21
1.189659
  0
LINE
  8
APS_GEOMETRY
 10
0.463678
 11
0.461917
 20
1.189659
 21
1.192593
  0
LINE
  8
APS_GEOMETRY
 10
0.461917
 11
0.460161
 20
1.192593
 21
1.195543
  0
LINE
  8
APS_GEOMETRY
 10
0.460161
 11
0.458411
 20
1.195543
 21
1.19851
  0
LINE
  8
APS_GEOMETRY
 10
0.458411
 11
0.456667
 20
1.19851
 21
1.201494
  0
LINE
  8
APS_GEOMETRY
 10
0.456667
 11
0.45493
 20
1.201494
 21
1.204495
  0
LINE
  8
APS_GEOMETRY
 10
0.45493
 11
0.4532
 20
1.204495
 21
1.207515
  0
LINE
  8
APS_GEOMETRY
 10
0.4532
 11
0.451478
 20
1.207515
 21
1.210553
  0
LINE
  8
APS_GEOMETRY
 10
0.451478
 11
0.449764
 20
1.210553
 21
1.213611
  0
LINE
  8
APS_GEOMETRY
 10
0.449764
 11
0.448059
 20
1.213611
 21
1.216688
  0
LINE
  8
APS_GEOMETRY
 10
0.448059
 11
0.446363
 20
1.216688
 21
1.219786
  0
LINE
  8
APS_GEOMETRY
 10
0.446363
 11
0.444676
 20
1.219786
 21
1.222905
  0
LINE
  8
APS_GEOMETRY
 10
0.444676
 11
0.443
 20
1.222905
 21
1.226045
  0
LINE
  8
APS_GEOMETRY
 10
0.443
 11
0.441334
 20
1.226045
 21
1.229208
  0
LINE
  8
APS_GEOMETRY
 10
0.441334
 11
0.439679
 20
1.229208
 21
1.232393
  0
LINE
  8
APS_GEOMETRY
 10
0.439679
 11
0.438036
 20
1.232393
 21
1.2356
  0
LINE
  8
APS_GEOMETRY
 10
0.438036
 11
0.436405
 20
1.2356
 21
1.238832
  0
LINE
  8
APS_GEOMETRY
 10
0.436405
 11
0.434786
 20
1.238832
 21
1.242088
  0
LINE
  8
APS_GEOMETRY
 10
0.434786
 11
0.433181
 20
1.242088
 21
1.245368
  0
LINE
  8
APS_GEOMETRY
 10
0.433181
 11
0.431588
 20
1.245368
 21
1.248674
  0
LINE
  8
APS_GEOMETRY
 10
0.431588
 11
0.43001
 20
1.248674
 21
1.252006
  0
LINE
  8
APS_GEOMETRY
 10
0.43001
 11
0.428446
 20
1.252006
 21
1.255363
  0
LINE
  8
APS_GEOMETRY
 10
0.428446
 11
0.426897
 20
1.255363
 21
1.258748
  0
LINE
  8
APS_GEOMETRY
 10
0.426897
 11
0.425363
 20
1.258748
 21
1.262161
  0
LINE
  8
APS_GEOMETRY
 10
0.425363
 11
0.423845
 20
1.262161
 21
1.265601
  0
LINE
  8
APS_GEOMETRY
 10
0.423845
 11
0.422344
 20
1.265601
 21
1.26907
  0
LINE
  8
APS_GEOMETRY
 10
0.422344
 11
0.420859
 20
1.26907
 21
1.272568
  0
LINE
  8
APS_GEOMETRY
 10
0.420859
 11
0.419391
 20
1.272568
 21
1.276095
  0
LINE
  8
APS_GEOMETRY
 10
0.419391
 11
0.417941
 20
1.276095
 21
1.279653
  0
LINE
  8
APS_GEOMETRY
 10
0.417941
 11
0.41651
 20
1.279653
 21
1.283241
  0
LINE
  8
APS_GEOMETRY
 10
0.41651
 11
0.415097
 20
1.283241
 21
1.286861
  0
LINE
  8
APS_GEOMETRY
 10
0.415097
 11
0.414397
 20
1.286861
 21
1.288683
  0
LINE
  8
APS_GEOMETRY
 10
0.414397
 11
0.413703
 20
1.288683
 21
1.290512
  0
LINE
  8
APS_GEOMETRY
 10
0.413703
 11
0.413013
 20
1.290512
 21
1.29235
  0
LINE
  8
APS_GEOMETRY
 10
0.413013
 11
0.412329
 20
1.29235
 21
1.294196
  0
LINE
  8
APS_GEOMETRY
 10
0.412329
 11
0.411649
 20
1.294196
 21
1.296051
  0
LINE
  8
APS_GEOMETRY
 10
0.411649
 11
0.410974
 20
1.296051
 21
1.297913
  0
LINE
  8
APS_GEOMETRY
 10
0.410974
 11
0.410305
 20
1.297913
 21
1.299784
  0
LINE
  8
APS_GEOMETRY
 10
0.410305
 11
0.409641
 20
1.299784
 21
1.301663
  0
LINE
  8
APS_GEOMETRY
 10
0.409641
 11
0.408982
 20
1.301663
 21
1.303551
  0
LINE
  8
APS_GEOMETRY
 10
0.408982
 11
0.408328
 20
1.303551
 21
1.305447
  0
LINE
  8
APS_GEOMETRY
 10
0.408328
 11
0.40768
 20
1.305447
 21
1.307352
  0
LINE
  8
APS_GEOMETRY
 10
0.40768
 11
0.407037
 20
1.307352
 21
1.309266
  0
LINE
  8
APS_GEOMETRY
 10
0.407037
 11
0.4064
 20
1.309266
 21
1.311189
  0
LINE
  8
APS_GEOMETRY
 10
0.4064
 11
0.405768
 20
1.311189
 21
1.31312
  0
LINE
  8
APS_GEOMETRY
 10
0.405768
 11
0.405142
 20
1.31312
 21
1.31506
  0
LINE
  8
APS_GEOMETRY
 10
0.405142
 11
0.404522
 20
1.31506
 21
1.317009
  0
LINE
  8
APS_GEOMETRY
 10
0.404522
 11
0.403907
 20
1.317009
 21
1.318968
  0
LINE
  8
APS_GEOMETRY
 10
0.403907
 11
0.403298
 20
1.318968
 21
1.320935
  0
LINE
  8
APS_GEOMETRY
 10
0.403298
 11
0.402695
 20
1.320935
 21
1.322911
  0
LINE
  8
APS_GEOMETRY
 10
0.402695
 11
0.402098
 20
1.322911
 21
1.324897
  0
LINE
  8
APS_GEOMETRY
 10
0.402098
 11
0.401507
 20
1.324897
 21
1.326892
  0
LINE
  8
APS_GEOMETRY
 10
0.401507
 11
0.400922
 20
1.326892
 21
1.328897
  0
LINE
  8
APS_GEOMETRY
 10
0.400922
 11
0.400343
 20
1.328897
 21
1.330911
  0
LINE
  8
APS_GEOMETRY
 10
0.400343
 11
0.39977
 20
1.330911
 21
1.332934
  0
LINE
  8
APS_GEOMETRY
 10
0.39977
 11
0.399204
 20
1.332934
 21
1.334967
  0
LINE
  8
APS_GEOMETRY
 10
0.399204
 11
0.398643
 20
1.334967
 21
1.33701
  0
LINE
  8
APS_GEOMETRY
 10
0.398643
 11
0.398089
 20
1.33701
 21
1.339062
  0
LINE
  8
APS_GEOMETRY
 10
0.398089
 11
0.397542
 20
1.339062
 21
1.341124
  0
LINE
  8
APS_GEOMETRY
 10
0.397542
 11
0.397001
 20
1.341124
 21
1.343196
  0
LINE
  8
APS_GEOMETRY
 10
0.397001
 11
0.396466
 20
1.343196
 21
1.345278
  0
LINE
  8
APS_GEOMETRY
 10
0.396466
 11
0.395938
 20
1.345278
 21
1.34737
  0
LINE
  8
APS_GEOMETRY
 10
0.395938
 11
0.395416
 20
1.34737
 21
1.349472
  0
LINE
  8
APS_GEOMETRY
 10
0.395416
 11
0.394902
 20
1.349472
 21
1.351585
  0
LINE
  8
APS_GEOMETRY
 10
0.394902
 11
0.394394
 20
1.351585
 21
1.353707
  0
LINE
  8
APS_GEOMETRY
 10
0.394394
 11
0.393892
 20
1.353707
 21
1.35584
  0
LINE
  8
APS_GEOMETRY
 10
0.393892
 11
0.393398
 20
1.35584
 21
1.357983
  0
LINE
  8
APS_GEOMETRY
 10
0.393398
 11
0.392911
 20
1.357983
 21
1.360136
  0
LINE
  8
APS_GEOMETRY
 10
0.392911
 11
0.39243
 20
1.360136
 21
1.3623
  0
LINE
  8
APS_GEOMETRY
 10
0.39243
 11
0.391957
 20
1.3623
 21
1.364474
  0
LINE
  8
APS_GEOMETRY
 10
0.391957
 11
0.391491
 20
1.364474
 21
1.366659
  0
LINE
  8
APS_GEOMETRY
 10
0.391491
 11
0.391032
 20
1.366659
 21
1.368855
  0
LINE
  8
APS_GEOMETRY
 10
0.391032
 11
0.39058
 20
1.368855
 21
1.371061
  0
LINE
  8
APS_GEOMETRY
 10
0.39058
 11
0.390135
 20
1.371061
 21
1.373278
  0
LINE
  8
APS_GEOMETRY
 10
0.390135
 11
0.389698
 20
1.373278
 21
1.375506
  0
LINE
  8
APS_GEOMETRY
 10
0.389698
 11
0.389268
 20
1.375506
 21
1.377746
  0
LINE
  8
APS_GEOMETRY
 10
0.389268
 11
0.388846
 20
1.377746
 21
1.379996
  0
LINE
  8
APS_GEOMETRY
 10
0.388846
 11
0.388431
 20
1.379996
 21
1.382257
  0
LINE
  8
APS_GEOMETRY
 10
0.388431
 11
0.388024
 20
1.382257
 21
1.384529
  0
LINE
  8
APS_GEOMETRY
 10
0.388024
 11
0.387624
 20
1.384529
 21
1.386813
  0
LINE
  8
APS_GEOMETRY
 10
0.387624
 11
0.387232
 20
1.386813
 21
1.389107
  0
LINE
  8
APS_GEOMETRY
 10
0.387232
 11
0.386848
 20
1.389107
 21
1.391414
  0
LINE
  8
APS_GEOMETRY
 10
0.386848
 11
0.386472
 20
1.391414
 21
1.393731
  0
LINE
  8
APS_GEOMETRY
 10
0.386472
 11
0.386103
 20
1.393731
 21
1.39606
  0
LINE
  8
APS_GEOMETRY
 10
0.386103
 11
0.385743
 20
1.39606
 21
1.398401
  0
LINE
  8
APS_GEOMETRY
 10
0.385743
 11
0.38539
 20
1.398401
 21
1.400753
  0
LINE
  8
APS_GEOMETRY
 10
0.38539
 11
0.385046
 20
1.400753
 21
1.403117
  0
LINE
  8
APS_GEOMETRY
 10
0.385046
 11
0.38471
 20
1.403117
 21
1.405493
  0
LINE
  8
APS_GEOMETRY
 10
0.38471
 11
0.384381
 20
1.405493
 21
1.40788
  0
LINE
  8
APS_GEOMETRY
 10
0.384381
 11
0.384062
 20
1.40788
 21
1.41028
  0
LINE
  8
APS_GEOMETRY
 10
0.384062
 11
0.38375
 20
1.41028
 21
1.412691
  0
LINE
  8
APS_GEOMETRY
 10
0.38375
 11
0.383447
 20
1.412691
 21
1.415115
  0
LINE
  8
APS_GEOMETRY
 10
0.383447
 11
0.383152
 20
1.415115
 21
1.41755
  0
LINE
  8
APS_GEOMETRY
 10
0.383152
 11
0.382866
 20
1.41755
 21
1.419998
  0
LINE
  8
APS_GEOMETRY
 10
0.382866
 11
0.382588
 20
1.419998
 21
1.422458
  0
LINE
  8
APS_GEOMETRY
 10
0.382588
 11
0.382318
 20
1.422458
 21
1.42493
  0
LINE
  8
APS_GEOMETRY
 10
0.382318
 11
0.382058
 20
1.42493
 21
1.427415
  0
LINE
  8
APS_GEOMETRY
 10
0.382058
 11
0.381806
 20
1.427415
 21
1.429912
  0
LINE
  8
APS_GEOMETRY
 10
0.381806
 11
0.381563
 20
1.429912
 21
1.432422
  0
LINE
  8
APS_GEOMETRY
 10
0.381563
 11
0.381329
 20
1.432422
 21
1.434944
  0
LINE
  8
APS_GEOMETRY
 10
0.381329
 11
0.381103
 20
1.434944
 21
1.437479
  0
LINE
  8
APS_GEOMETRY
 10
0.381103
 11
0.380887
 20
1.437479
 21
1.440027
  0
LINE
  8
APS_GEOMETRY
 10
0.380887
 11
0.38068
 20
1.440027
 21
1.442587
  0
LINE
  8
APS_GEOMETRY
 10
0.38068
 11
0.380481
 20
1.442587
 21
1.44516
  0
LINE
  8
APS_GEOMETRY
 10
0.380481
 11
0.380292
 20
1.44516
 21
1.447746
  0
LINE
  8
APS_GEOMETRY
 10
0.380292
 11
0.380112
 20
1.447746
 21
1.450346
  0
LINE
  8
APS_GEOMETRY
 10
0.380112
 11
0.379941
 20
1.450346
 21
1.452958
  0
LINE
  8
APS_GEOMETRY
 10
0.379941
 11
0.37978
 20
1.452958
 21
1.455583
  0
LINE
  8
APS_GEOMETRY
 10
0.37978
 11
0.379628
 20
1.455583
 21
1.458222
  0
LINE
  8
APS_GEOMETRY
 10
0.379628
 11
0.379485
 20
1.458222
 21
1.460873
  0
LINE
  8
APS_GEOMETRY
 10
0.379485
 11
0.379352
 20
1.460873
 21
1.463539
  0
LINE
  8
APS_GEOMETRY
 10
0.379352
 11
0.379228
 20
1.463539
 21
1.466217
  0
LINE
  8
APS_GEOMETRY
 10
0.379228
 11
0.379114
 20
1.466217
 21
1.468909
  0
LINE
  8
APS_GEOMETRY
 10
0.379114
 11
0.37901
 20
1.468909
 21
1.471615
  0
LINE
  8
APS_GEOMETRY
 10
0.37901
 11
0.378915
 20
1.471615
 21
1.474334
  0
LINE
  8
APS_GEOMETRY
 10
0.378915
 11
0.37883
 20
1.474334
 21
1.477066
  0
LINE
  8
APS_GEOMETRY
 10
0.37883
 11
0.378755
 20
1.477066
 21
1.479813
  0
LINE
  8
APS_GEOMETRY
 10
0.378755
 11
0.37869
 20
1.479813
 21
1.482573
  0
LINE
  8
APS_GEOMETRY
 10
0.37869
 11
0.378635
 20
1.482573
 21
1.485348
  0
LINE
  8
APS_GEOMETRY
 10
0.378635
 11
0.37859
 20
1.485348
 21
1.488136
  0
LINE
  8
APS_GEOMETRY
 10
0.37859
 11
0.378555
 20
1.488136
 21
1.490938
  0
LINE
  8
APS_GEOMETRY
 10
0.378555
 11
0.37853
 20
1.490938
 21
1.493754
  0
LINE
  8
APS_GEOMETRY
 10
0.37853
 11
0.378515
 20
1.493754
 21
1.496585
  0
LINE
  8
APS_GEOMETRY
 10
0.378515
 11
0.378511
 20
1.496585
 21
1.499429
  0
LINE
  8
APS_GEOMETRY
 10
0.378511
 11
0.378517
 20
1.499429
 21
1.502288
  0
LINE
  8
APS_GEOMETRY
 10
0.378517
 11
0.378533
 20
1.502288
 21
1.505161
  0
LINE
  8
APS_GEOMETRY
 10
0.378533
 11
0.37856
 20
1.505161
 21
1.508049
  0
LINE
  8
APS_GEOMETRY
 10
0.37856
 11
0.378597
 20
1.508049
 21
1.510951
  0
LINE
  8
APS_GEOMETRY
 10
0.378597
 11
0.378645
 20
1.510951
 21
1.513868
  0
LINE
  8
APS_GEOMETRY
 10
0.378645
 11
0.378703
 20
1.513868
 21
1.516799
  0
LINE
  8
APS_GEOMETRY
 10
0.378703
 11
0.378772
 20
1.516799
 21
1.519745
  0
LINE
  8
APS_GEOMETRY
 10
0.378772
 11
0.378852
 20
1.519745
 21
1.522706
  0
LINE
  8
APS_GEOMETRY
 10
0.378852
 11
0.378943
 20
1.522706
 21
1.525682
  0
LINE
  8
APS_GEOMETRY
 10
0.378943
 11
0.379044
 20
1.525682
 21
1.528672
  0
LINE
  8
APS_GEOMETRY
 10
0.379044
 11
0.379156
 20
1.528672
 21
1.531678
  0
LINE
  8
APS_GEOMETRY
 10
0.379156
 11
0.37928
 20
1.531678
 21
1.534698
  0
LINE
  8
APS_GEOMETRY
 10
0.37928
 11
0.379414
 20
1.534698
 21
1.537734
  0
LINE
  8
APS_GEOMETRY
 10
0.379414
 11
0.37956
 20
1.537734
 21
1.540785
  0
LINE
  8
APS_GEOMETRY
 10
0.37956
 11
0.379716
 20
1.540785
 21
1.543851
  0
LINE
  8
APS_GEOMETRY
 10
0.379716
 11
0.379884
 20
1.543851
 21
1.546932
  0
LINE
  8
APS_GEOMETRY
 10
0.379884
 11
0.380063
 20
1.546932
 21
1.550029
  0
LINE
  8
APS_GEOMETRY
 10
0.380063
 11
0.380253
 20
1.550029
 21
1.553141
  0
LINE
  8
APS_GEOMETRY
 10
0.380253
 11
0.380455
 20
1.553141
 21
1.556269
  0
LINE
  8
APS_GEOMETRY
 10
0.380455
 11
0.380669
 20
1.556269
 21
1.559412
  0
LINE
  8
APS_GEOMETRY
 10
0.380669
 11
0.380893
 20
1.559412
 21
1.562571
  0
LINE
  8
APS_GEOMETRY
 10
0.380893
 11
0.38113
 20
1.562571
 21
1.565746
  0
LINE
  8
APS_GEOMETRY
 10
0.38113
 11
0.381378
 20
1.565746
 21
1.568936
  0
LINE
  8
APS_GEOMETRY
 10
0.381378
 11
0.381637
 20
1.568936
 21
1.572142
  0
LINE
  8
APS_GEOMETRY
 10
0.381637
 11
0.381909
 20
1.572142
 21
1.575364
  0
LINE
  8
APS_GEOMETRY
 10
0.381909
 11
0.382192
 20
1.575364
 21
1.578603
  0
LINE
  8
APS_GEOMETRY
 10
0.382192
 11
0.382487
 20
1.578603
 21
1.581857
  0
LINE
  8
APS_GEOMETRY
 10
0.382487
 11
0.382794
 20
1.581857
 21
1.585127
  0
LINE
  8
APS_GEOMETRY
 10
0.382794
 11
0.383113
 20
1.585127
 21
1.588414
  0
LINE
  8
APS_GEOMETRY
 10
0.383113
 11
0.383444
 20
1.588414
 21
1.591716
  0
LINE
  8
APS_GEOMETRY
 10
0.383444
 11
0.383787
 20
1.591716
 21
1.595036
  0
LINE
  8
APS_GEOMETRY
 10
0.383787
 11
0.384142
 20
1.595036
 21
1.598371
  0
LINE
  8
APS_GEOMETRY
 10
0.384142
 11
0.38451
 20
1.598371
 21
1.601723
  0
LINE
  8
APS_GEOMETRY
 10
0.38451
 11
0.38489
 20
1.601723
 21
1.605092
  0
LINE
  8
APS_GEOMETRY
 10
0.38489
 11
0.385282
 20
1.605092
 21
1.608477
  0
LINE
  8
APS_GEOMETRY
 10
0.385282
 11
0.385686
 20
1.608477
 21
1.611878
  0
LINE
  8
APS_GEOMETRY
 10
0.385686
 11
0.386103
 20
1.611878
 21
1.615297
  0
LINE
  8
APS_GEOMETRY
 10
0.386103
 11
0.386533
 20
1.615297
 21
1.618732
  0
LINE
  8
APS_GEOMETRY
 10
0.386533
 11
0.386975
 20
1.618732
 21
1.622184
  0
LINE
  8
APS_GEOMETRY
 10
0.386975
 11
0.38743
 20
1.622184
 21
1.625653
  0
LINE
  8
APS_GEOMETRY
 10
0.38743
 11
0.387897
 20
1.625653
 21
1.62914
  0
LINE
  8
APS_GEOMETRY
 10
0.387897
 11
0.388378
 20
1.62914
 21
1.632643
  0
LINE
  8
APS_GEOMETRY
 10
0.388378
 11
0.388871
 20
1.632643
 21
1.636163
  0
LINE
  8
APS_GEOMETRY
 10
0.388871
 11
0.389376
 20
1.636163
 21
1.639701
  0
LINE
  8
APS_GEOMETRY
 10
0.389376
 11
0.389895
 20
1.639701
 21
1.643256
  0
LINE
  8
APS_GEOMETRY
 10
0.389895
 11
0.390427
 20
1.643256
 21
1.646828
  0
LINE
  8
APS_GEOMETRY
 10
0.390427
 11
0.390972
 20
1.646828
 21
1.650417
  0
LINE
  8
APS_GEOMETRY
 10
0.390972
 11
0.39153
 20
1.650417
 21
1.654024
  0
LINE
  8
APS_GEOMETRY
 10
0.39153
 11
0.392101
 20
1.654024
 21
1.657649
  0
LINE
  8
APS_GEOMETRY
 10
0.392101
 11
0.392686
 20
1.657649
 21
1.661291
  0
LINE
  8
APS_GEOMETRY
 10
0.392686
 11
0.393283
 20
1.661291
 21
1.664951
  0
LINE
  8
APS_GEOMETRY
 10
0.393283
 11
0.393894
 20
1.664951
 21
1.668629
  0
LINE
  8
APS_GEOMETRY
 10
0.393894
 11
0.394519
 20
1.668629
 21
1.672325
  0
LINE
  8
APS_GEOMETRY
 10
0.394519
 11
0.394888
 20
1.672325
 21
1.674054
  0
LINE
  8
APS_GEOMETRY
 10
0.394888
 11
0.395238
 20
1.674054
 21
1.67577
  0
LINE
  8
APS_GEOMETRY
 10
0.395238
 11
0.39557
 20
1.67577
 21
1.677472
  0
LINE
  8
APS_GEOMETRY
 10
0.39557
 11
0.395884
 20
1.677472
 21
1.679161
  0
LINE
  8
APS_GEOMETRY
 10
0.395884
 11
0.396179
 20
1.679161
 21
1.680836
  0
LINE
  8
APS_GEOMETRY
 10
0.396179
 11
0.396455
 20
1.680836
 21
1.682497
  0
LINE
  8
APS_GEOMETRY
 10
0.396455
 11
0.396712
 20
1.682497
 21
1.684143
  0
LINE
  8
APS_GEOMETRY
 10
0.396712
 11
0.39695
 20
1.684143
 21
1.685776
  0
LINE
  8
APS_GEOMETRY
 10
0.39695
 11
0.397169
 20
1.685776
 21
1.687394
  0
LINE
  8
APS_GEOMETRY
 10
0.397169
 11
0.397369
 20
1.687394
 21
1.688999
  0
LINE
  8
APS_GEOMETRY
 10
0.397369
 11
0.397549
 20
1.688999
 21
1.690588
  0
LINE
  8
APS_GEOMETRY
 10
0.397549
 11
0.397709
 20
1.690588
 21
1.692163
  0
LINE
  8
APS_GEOMETRY
 10
0.397709
 11
0.39785
 20
1.692163
 21
1.693724
  0
LINE
  8
APS_GEOMETRY
 10
0.39785
 11
0.397971
 20
1.693724
 21
1.695269
  0
LINE
  8
APS_GEOMETRY
 10
0.397971
 11
0.398071
 20
1.695269
 21
1.6968
  0
LINE
  8
APS_GEOMETRY
 10
0.398071
 11
0.398152
 20
1.6968
 21
1.698316
  0
LINE
  8
APS_GEOMETRY
 10
0.398152
 11
0.398212
 20
1.698316
 21
1.699817
  0
LINE
  8
APS_GEOMETRY
 10
0.398212
 11
0.398252
 20
1.699817
 21
1.701302
  0
LINE
  8
APS_GEOMETRY
 10
0.398252
 11
0.39827
 20
1.701302
 21
1.702772
  0
LINE
  8
APS_GEOMETRY
 10
0.39827
 11
0.398269
 20
1.702772
 21
1.704227
  0
LINE
  8
APS_GEOMETRY
 10
0.398269
 11
0.398246
 20
1.704227
 21
1.705667
  0
LINE
  8
APS_GEOMETRY
 10
0.398246
 11
0.398202
 20
1.705667
 21
1.70709
  0
LINE
  8
APS_GEOMETRY
 10
0.398202
 11
0.398137
 20
1.70709
 21
1.708499
  0
LINE
  8
APS_GEOMETRY
 10
0.398137
 11
0.398051
 20
1.708499
 21
1.709891
  0
LINE
  8
APS_GEOMETRY
 10
0.398051
 11
0.397943
 20
1.709891
 21
1.711267
  0
LINE
  8
APS_GEOMETRY
 10
0.397943
 11
0.397813
 20
1.711267
 21
1.712628
  0
LINE
  8
APS_GEOMETRY
 10
0.397813
 11
0.397662
 20
1.712628
 21
1.713972
  0
LINE
  8
APS_GEOMETRY
 10
0.397662
 11
0.397489
 20
1.713972
 21
1.7153
  0
LINE
  8
APS_GEOMETRY
 10
0.397489
 11
0.397293
 20
1.7153
 21
1.716612
  0
LINE
  8
APS_GEOMETRY
 10
0.397293
 11
0.397076
 20
1.716612
 21
1.717907
  0
LINE
  8
APS_GEOMETRY
 10
0.397076
 11
0.396836
 20
1.717907
 21
1.719186
  0
LINE
  8
APS_GEOMETRY
 10
0.396836
 11
0.396574
 20
1.719186
 21
1.720448
  0
LINE
  8
APS_GEOMETRY
 10
0.396574
 11
0.396289
 20
1.720448
 21
1.721694
  0
LINE
  8
APS_GEOMETRY
 10
0.396289
 11
0.395981
 20
1.721694
 21
1.722922
  0
LINE
  8
APS_GEOMETRY
 10
0.395981
 11
0.39565
 20
1.722922
 21
1.724134
  0
LINE
  8
APS_GEOMETRY
 10
0.39565
 11
0.395296
 20
1.724134
 21
1.725329
  0
LINE
  8
APS_GEOMETRY
 10
0.395296
 11
0.394919
 20
1.725329
 21
1.726506
  0
LINE
  8
APS_GEOMETRY
 10
0.394919
 11
0.394519
 20
1.726506
 21
1.727667
  0
LINE
  8
APS_GEOMETRY
 10
0.394519
 11
0.394095
 20
1.727667
 21
1.72881
  0
LINE
  8
APS_GEOMETRY
 10
0.394095
 11
0.393648
 20
1.72881
 21
1.729935
  0
LINE
  8
APS_GEOMETRY
 10
0.393648
 11
0.393177
 20
1.729935
 21
1.731043
  0
LINE
  8
APS_GEOMETRY
 10
0.393177
 11
0.392682
 20
1.731043
 21
1.732134
  0
ARC
  8
APS_GEOMETRY
 10
0.354661
 20
1.715552
 40
0.04148
 50
23.564067
 51
59.920321
  0
TEXT
  8
TEXT
 10
0.10065
 20
-1.405784
 30
0.0
 40
0.224
 50
0.0
  1
DOVETAIL DESIGNS
  0
TEXT
  8
TEXT
 10
2.276036
 20
-1.551751
 30
0.0
 40
0.099
 50
0.0
  1
& MILLWORK INC.
  0
TEXT
  8
TEXT
 10
1.092458
 20
-1.640461
 30
0.0
 40
0.07
 50
0.0
  1
Established 1979
  0
TEXT
  8
TEXT
 10
0.1
 20
-1.8
 30
0.0
 40
0.1
 50
0.0
  1
Phone: (406) 248-5010    Website: www.dovetailmt.com
  0
TEXT
  8
TEXT
 10
0.0
 20
-0.25
 30
0.0
 40
0.15625
 50
0.0
  1
CS106
  0
TEXT
  8
TEXT
 10
0.0
 20
-0.5
 30
0.0
 40
0.1
 50
0.0
  1
5/8"x3-1/4"
  0
ENDSEC
  0
EOF
