  0
SECTION
  2
ENTITIES
  0
ARC
  8
APS_GEOMETRY
 10
0.502705
 20
1.402472
 40
0.247324
 50
299.635103
 51
0.869492
  0
LINE
  8
APS_GEOMETRY
 10
0.750001
 11
0.84375
 20
1.406225
 21
1.406225
  0
LINE
  8
APS_GEOMETRY
 10
0.84375
 11
0.84375
 20
1.406225
 21
3.093775
  0
LINE
  8
APS_GEOMETRY
 10
0.84375
 11
0.75
 20
3.093775
 21
3.093775
  0
ARC
  8
APS_GEOMETRY
 10
0.502704
 20
3.097529
 40
0.247324
 50
359.130238
 51
60.373156
  0
ARC
  8
APS_GEOMETRY
 10
-69.442417
 20
12.093324
 40
70.615445
 50
352.856964
 51
353.556211
  0
ARC
  8
APS_GEOMETRY
 10
0.636521
 20
4.178472
 40
0.090964
 50
353.558282
 51
66.06598
  0
LINE
  8
APS_GEOMETRY
 10
0.673424
 11
0.625
 20
4.261614
 21
4.28125
  0
ARC
  8
APS_GEOMETRY
 10
0.384566
 20
4.28125
 40
0.240434
 50
0.0
 51
65.47972
  0
LINE
  8
APS_GEOMETRY
 10
0.48435
 11
0.0
 20
4.5
 21
4.5
  0
LINE
  8
APS_GEOMETRY
 10
0.0
 11
0.0
 20
4.5
 21
0.0
  0
LINE
  8
APS_GEOMETRY
 10
0.0
 11
0.48435
 20
0.0
 21
0.0
  0
ARC
  8
APS_GEOMETRY
 10
0.384566
 20
0.21875
 40
0.240434
 50
294.520335
 51
359.999946
  0
LINE
  8
APS_GEOMETRY
 10
0.625
 11
0.673424
 20
0.21875
 21
0.238385
  0
ARC
  8
APS_GEOMETRY
 10
0.636521
 20
0.321527
 40
0.090964
 50
293.934183
 51
6.44211
  0
ARC
  8
APS_GEOMETRY
 10
-69.442727
 20
-7.590577
 40
70.615445
 50
6.441545
 51
7.140805
  0
LINE
  8
CONSTRUCTION
 10
0.152615
 11
0.10065
 20
-1.038482
 21
-1.166909
  0
LINE
  8
CONSTRUCTION
 10
0.10065
 11
0.20458
 20
-1.166909
 21
-1.166909
  0
LINE
  8
CONSTRUCTION
 10
0.20458
 11
0.152615
 20
-1.166909
 21
-1.038482
  0
LINE
  8
CONSTRUCTION
 10
0.152615
 11
0.559547
 20
-1.038482
 21
-1.03848
  0
LINE
  8
CONSTRUCTION
 10
0.559547
 11
0.507582
 20
-1.03848
 21
-1.166908
  0
LINE
  8
CONSTRUCTION
 10
0.507582
 11
0.611512
 20
-1.166908
 21
-1.166908
  0
LINE
  8
CONSTRUCTION
 10
0.611512
 11
0.559547
 20
-1.166908
 21
-1.03848
  0
LINE
  8
CONSTRUCTION
 10
0.559547
 11
0.966478
 20
-1.03848
 21
-1.03848
  0
LINE
  8
CONSTRUCTION
 10
0.966478
 11
0.914513
 20
-1.03848
 21
-1.166908
  0
LINE
  8
CONSTRUCTION
 10
0.914513
 11
1.018442
 20
-1.166908
 21
-1.166908
  0
LINE
  8
CONSTRUCTION
 10
1.018442
 11
0.966478
 20
-1.166908
 21
-1.03848
  0
LINE
  8
CONSTRUCTION
 10
0.966478
 11
1.373408
 20
-1.03848
 21
-1.03848
  0
LINE
  8
CONSTRUCTION
 10
1.373408
 11
1.321443
 20
-1.03848
 21
-1.166908
  0
LINE
  8
CONSTRUCTION
 10
1.321443
 11
1.425373
 20
-1.166908
 21
-1.166908
  0
LINE
  8
CONSTRUCTION
 10
1.425373
 11
1.373408
 20
-1.166908
 21
-1.03848
  0
LINE
  8
CONSTRUCTION
 10
1.373408
 11
1.780281
 20
-1.03848
 21
-1.038482
  0
LINE
  8
CONSTRUCTION
 10
1.780281
 11
1.728316
 20
-1.038482
 21
-1.166909
  0
LINE
  8
CONSTRUCTION
 10
1.728316
 11
1.832246
 20
-1.166909
 21
-1.166909
  0
LINE
  8
CONSTRUCTION
 10
1.832246
 11
1.780281
 20
-1.166909
 21
-1.038482
  0
LINE
  8
CONSTRUCTION
 10
0.0
 11
4.0
 20
-1.561751
 21
-1.561751
  0
TEXT
  8
TEXT
 10
0.10065
 20
-1.405784
 30
0.0
 40
0.224
 50
0.0
  1
DOVETAIL DESIGNS
  0
TEXT
  8
TEXT
 10
2.276036
 20
-1.551751
 30
0.0
 40
0.099
 50
0.0
  1
& MILLWORK INC.
  0
TEXT
  8
TEXT
 10
1.092458
 20
-1.640461
 30
0.0
 40
0.07
 50
0.0
  1
Established 1979
  0
TEXT
  8
TEXT
 10
0.1
 20
-1.8
 30
0.0
 40
0.1
 50
0.0
  1
Phone: (406) 248-5010    Website: www.dovetailmt.com
  0
TEXT
  8
TEXT
 10
0.0
 20
-0.5
 30
0.0
 40
0.1
 50
0.0
  1
3/4"x4-1/2"
  0
TEXT
  8
TEXT
 10
0.0
 20
-0.25
 30
0.0
 40
0.15625
 50
0.0
  1
CS105
  0
ENDSEC
  0
EOF
