  0
SECTION
  2
ENTITIES
  0
ARC
  8
APS_GEOMETRY
 10
1.000049
 20
0.0
 40
0.25
 50
90.0
 51
180.0
  0
LINE
  8
APS_GEOMETRY
 10
0.750049
 11
0.500049
 20
0.0
 21
0.0
  0
LINE
  8
APS_GEOMETRY
 10
0.500049
 11
0.500049
 20
0.0
 21
0.5
  0
LINE
  8
APS_GEOMETRY
 10
0.500049
 11
0.0
 20
0.5
 21
0.5
  0
LINE
  8
APS_GEOMETRY
 10
0.0
 11
0.0
 20
0.5
 21
0.75
  0
LINE
  8
APS_GEOMETRY
 10
0.0
 11
0.06
 20
0.75
 21
0.75
  0
LINE
  8
APS_GEOMETRY
 10
0.06
 11
0.06
 20
0.75
 21
3.25
  0
LINE
  8
APS_GEOMETRY
 10
0.06
 11
0.0
 20
3.25
 21
3.25
  0
LINE
  8
APS_GEOMETRY
 10
0.0
 11
0.0
 20
3.25
 21
4.0
  0
LINE
  8
APS_GEOMETRY
 10
0.0
 11
0.750049
 20
4.0
 21
4.0
  0
ARC
  8
APS_GEOMETRY
 10
1.000049
 20
4.0
 40
0.25
 50
180.0
 51
270.0
  0
LINE
  8
APS_GEOMETRY
 10
1.000049
 11
1.000049
 20
3.75
 21
3.6875
  0
ARC
  8
APS_GEOMETRY
 10
1.000049
 20
3.4375
 40
0.25
 50
300.0
 51
90.0
  0
LINE
  8
APS_GEOMETRY
 10
1.125049
 11
1.25
 20
3.220994
 21
3.096056
  0
ARC
  8
APS_GEOMETRY
 10
3.528173
 20
2.0
 40
2.528124
 50
154.307242
 51
205.692746
  0
LINE
  8
APS_GEOMETRY
 10
1.25
 11
1.125049
 20
0.903944
 21
0.779006
  0
ARC
  8
APS_GEOMETRY
 10
1.000048
 20
0.5625
 40
0.25
 50
270.000139
 51
59.999839
  0
LINE
  8
APS_GEOMETRY
 10
1.000049
 11
1.000049
 20
0.3125
 21
0.25
  0
LINE
  8
CONSTRUCTION
 10
0.152615
 11
0.10065
 20
-1.038482
 21
-1.166909
  0
LINE
  8
CONSTRUCTION
 10
0.10065
 11
0.20458
 20
-1.166909
 21
-1.166909
  0
LINE
  8
CONSTRUCTION
 10
0.20458
 11
0.152615
 20
-1.166909
 21
-1.038482
  0
LINE
  8
CONSTRUCTION
 10
0.152615
 11
0.559547
 20
-1.038482
 21
-1.03848
  0
LINE
  8
CONSTRUCTION
 10
0.559547
 11
0.507582
 20
-1.03848
 21
-1.166908
  0
LINE
  8
CONSTRUCTION
 10
0.507582
 11
0.611512
 20
-1.166908
 21
-1.166908
  0
LINE
  8
CONSTRUCTION
 10
0.611512
 11
0.559547
 20
-1.166908
 21
-1.03848
  0
LINE
  8
CONSTRUCTION
 10
0.559547
 11
0.966478
 20
-1.03848
 21
-1.03848
  0
LINE
  8
CONSTRUCTION
 10
0.966478
 11
0.914513
 20
-1.03848
 21
-1.166908
  0
LINE
  8
CONSTRUCTION
 10
0.914513
 11
1.018442
 20
-1.166908
 21
-1.166908
  0
LINE
  8
CONSTRUCTION
 10
1.018442
 11
0.966478
 20
-1.166908
 21
-1.03848
  0
LINE
  8
CONSTRUCTION
 10
0.966478
 11
1.373408
 20
-1.03848
 21
-1.03848
  0
LINE
  8
CONSTRUCTION
 10
1.373408
 11
1.321443
 20
-1.03848
 21
-1.166908
  0
LINE
  8
CONSTRUCTION
 10
1.321443
 11
1.425373
 20
-1.166908
 21
-1.166908
  0
LINE
  8
CONSTRUCTION
 10
1.425373
 11
1.373408
 20
-1.166908
 21
-1.03848
  0
LINE
  8
CONSTRUCTION
 10
1.373408
 11
1.780281
 20
-1.03848
 21
-1.038482
  0
LINE
  8
CONSTRUCTION
 10
1.780281
 11
1.728316
 20
-1.038482
 21
-1.166909
  0
LINE
  8
CONSTRUCTION
 10
1.728316
 11
1.832246
 20
-1.166909
 21
-1.166909
  0
LINE
  8
CONSTRUCTION
 10
1.832246
 11
1.780281
 20
-1.166909
 21
-1.038482
  0
LINE
  8
CONSTRUCTION
 10
0.0
 11
4.0
 20
-1.561751
 21
-1.561751
  0
TEXT
  8
TEXT
 10
0.10065
 20
-1.405784
 30
0.0
 40
0.224
 50
0.0
  1
DOVETAIL DESIGNS
  0
TEXT
  8
TEXT
 10
2.276036
 20
-1.551751
 30
0.0
 40
0.099
 50
0.0
  1
& MILLWORK INC.
  0
TEXT
  8
TEXT
 10
1.092458
 20
-1.640461
 30
0.0
 40
0.07
 50
0.0
  1
Established 1979
  0
TEXT
  8
TEXT
 10
0.1
 20
-1.8
 30
0.0
 40
0.1
 50
0.0
  1
Phone: (406) 248-5010    Website: www.dovetailmt.com
  0
TEXT
  8
TEXT
 10
0.0
 20
-0.5
 30
0.0
 40
0.1
 50
0.0
  1
1-1/4"x4"
  0
TEXT
  8
TEXT
 10
0.0
 20
-0.25
 30
0.0
 40
0.15625
 50
0.0
  1
CR43
  0
ENDSEC
  0
EOF
