  0
SECTION
  2
ENTITIES
  0
ARC
  8
APS_GEOMETRY
 10
0.03125
 20
4.1875
 40
0.0625
 50
0.0
 51
90.0
  0
LINE
  8
APS_GEOMETRY
 10
0.03125
 11
0.0
 20
4.25
 21
4.25
  0
LINE
  8
APS_GEOMETRY
 10
0.0
 11
0.0
 20
4.25
 21
5.0
  0
LINE
  8
APS_GEOMETRY
 10
0.0
 11
0.6875
 20
5.0
 21
5.0
  0
LINE
  8
APS_GEOMETRY
 10
0.6875
 11
0.6875
 20
5.0
 21
4.90625
  0
ARC
  8
APS_GEOMETRY
 10
0.6875
 20
4.708511
 40
0.197739
 50
77.69711
 51
90.0
  0
ARC
  8
APS_GEOMETRY
 10
0.681164
 20
4.679475
 40
0.227458
 50
66.228213
 51
77.69628
  0
ARC
  8
APS_GEOMETRY
 10
0.668425
 20
4.650534
 40
0.259079
 50
56.111782
 51
66.229986
  0
ARC
  8
APS_GEOMETRY
 10
0.614796
 20
4.570697
 40
0.355256
 50
47.473652
 51
56.111173
  0
ARC
  8
APS_GEOMETRY
 10
0.568862
 20
4.520624
 40
0.423206
 50
40.194208
 51
47.472816
  0
ARC
  8
APS_GEOMETRY
 10
0.438107
 20
4.410142
 40
0.594388
 50
34.054264
 51
40.194815
  0
ARC
  8
APS_GEOMETRY
 10
0.351355
 20
4.351504
 40
0.699099
 50
28.82395
 51
34.054486
  0
ARC
  8
APS_GEOMETRY
 10
0.143445
 20
4.237103
 40
0.936405
 50
24.304244
 51
28.823329
  0
ARC
  8
APS_GEOMETRY
 10
0.024185
 20
4.183251
 40
1.06726
 50
20.335487
 51
24.303892
  0
ARC
  8
APS_GEOMETRY
 10
-0.229325
 20
4.089266
 40
1.337631
 50
16.792167
 51
20.336719
  0
ARC
  8
APS_GEOMETRY
 10
-0.358756
 20
4.050226
 40
1.472821
 50
13.571009
 51
16.791483
  0
ARC
  8
APS_GEOMETRY
 10
-0.60404
 20
3.991001
 40
1.725154
 50
10.595896
 51
13.571514
  0
ARC
  8
APS_GEOMETRY
 10
-0.714057
 20
3.970437
 40
1.837076
 50
7.800575
 51
10.595392
  0
ARC
  8
APS_GEOMETRY
 10
-0.891923
 20
3.946073
 40
2.016603
 50
5.132975
 51
7.800493
  0
ARC
  8
APS_GEOMETRY
 10
-0.955113
 20
3.940378
 40
2.08005
 50
2.547148
 51
5.133502
  0
ARC
  8
APS_GEOMETRY
 10
-1.020073
 20
3.937505
 40
2.145073
 50
359.999873
 51
2.5467
  0
ARC
  8
APS_GEOMETRY
 10
1.0625
 20
3.9375
 40
0.0625
 50
270.0
 51
0.0
  0
LINE
  8
APS_GEOMETRY
 10
1.0625
 11
1.0625
 20
3.875
 21
3.78125
  0
ARC
  8
APS_GEOMETRY
 10
0.9375
 20
3.78125
 40
0.125
 50
270.0
 51
0.0
  0
ARC
  8
APS_GEOMETRY
 10
0.9375
 20
3.553942
 40
0.102308
 50
90.0
 51
100.23547
  0
ARC
  8
APS_GEOMETRY
 10
0.93915
 20
3.544822
 40
0.111576
 50
100.237004
 51
110.037065
  0
ARC
  8
APS_GEOMETRY
 10
0.94244
 20
3.535786
 40
0.121192
 50
110.034733
 51
119.079389
  0
ARC
  8
APS_GEOMETRY
 10
0.956358
 20
3.51076
 40
0.149828
 50
119.079618
 51
127.2123
  0
ARC
  8
APS_GEOMETRY
 10
0.968258
 20
3.495092
 40
0.169503
 50
127.212729
 51
134.419436
  0
ARC
  8
APS_GEOMETRY
 10
1.002153
 20
3.460498
 40
0.217935
 50
134.418479
 51
140.773041
  0
ARC
  8
APS_GEOMETRY
 10
1.024656
 20
3.44213
 40
0.246982
 50
140.773528
 51
146.389934
  0
ARC
  8
APS_GEOMETRY
 10
1.078539
 20
3.406318
 40
0.311681
 50
146.390227
 51
151.389345
  0
ARC
  8
APS_GEOMETRY
 10
1.109481
 20
3.389447
 40
0.346923
 50
151.390185
 51
155.885333
  0
ARC
  8
APS_GEOMETRY
 10
1.175187
 20
3.360038
 40
0.418911
 50
155.88572
 51
159.97613
  0
ARC
  8
APS_GEOMETRY
 10
1.208762
 20
3.347801
 40
0.454646
 50
159.97607
 51
163.746802
  0
ARC
  8
APS_GEOMETRY
 10
1.272334
 20
3.329256
 40
0.520868
 50
163.745559
 51
167.268298
  0
ARC
  8
APS_GEOMETRY
 10
1.30087
 20
3.322801
 40
0.550125
 50
167.267536
 51
170.603787
  0
ARC
  8
APS_GEOMETRY
 10
1.346976
 20
3.315197
 40
0.596853
 50
170.606242
 51
173.809139
  0
ARC
  8
APS_GEOMETRY
 10
1.363364
 20
3.313389
 40
0.613341
 50
173.806344
 51
176.923421
  0
ARC
  8
APS_GEOMETRY
 10
1.380202
 20
3.312506
 40
0.630202
 50
176.925352
 51
180.000516
  0
LINE
  8
APS_GEOMETRY
 10
0.75
 11
0.75
 20
3.3125
 21
3.0625
  0
ARC
  8
APS_GEOMETRY
 10
0.6875
 20
3.0625
 40
0.0625
 50
270.0
 51
0.0
  0
LINE
  8
APS_GEOMETRY
 10
0.6875
 11
0.6875
 20
3.0
 21
0.5
  0
ARC
  8
APS_GEOMETRY
 10
0.1875
 20
0.5
 40
0.5
 50
270.0
 51
0.0
  0
LINE
  8
APS_GEOMETRY
 10
0.1875
 11
0.0
 20
0.0
 21
0.0
  0
LINE
  8
APS_GEOMETRY
 10
0.0
 11
0.0
 20
0.0
 21
0.75
  0
LINE
  8
APS_GEOMETRY
 10
0.0
 11
0.03125
 20
0.75
 21
0.75
  0
ARC
  8
APS_GEOMETRY
 10
0.03125
 20
0.8125
 40
0.0625
 50
270.0
 51
0.0
  0
LINE
  8
APS_GEOMETRY
 10
0.09375
 11
0.09375
 20
0.8125
 21
4.1875
  0
LINE
  8
CONSTRUCTION
 10
0.152615
 11
0.10065
 20
-1.038482
 21
-1.166909
  0
LINE
  8
CONSTRUCTION
 10
0.10065
 11
0.20458
 20
-1.166909
 21
-1.166909
  0
LINE
  8
CONSTRUCTION
 10
0.20458
 11
0.152615
 20
-1.166909
 21
-1.038482
  0
LINE
  8
CONSTRUCTION
 10
0.152615
 11
0.559547
 20
-1.038482
 21
-1.03848
  0
LINE
  8
CONSTRUCTION
 10
0.559547
 11
0.507582
 20
-1.03848
 21
-1.166908
  0
LINE
  8
CONSTRUCTION
 10
0.507582
 11
0.611512
 20
-1.166908
 21
-1.166908
  0
LINE
  8
CONSTRUCTION
 10
0.611512
 11
0.559547
 20
-1.166908
 21
-1.03848
  0
LINE
  8
CONSTRUCTION
 10
0.559547
 11
0.966478
 20
-1.03848
 21
-1.03848
  0
LINE
  8
CONSTRUCTION
 10
0.966478
 11
0.914513
 20
-1.03848
 21
-1.166908
  0
LINE
  8
CONSTRUCTION
 10
0.914513
 11
1.018442
 20
-1.166908
 21
-1.166908
  0
LINE
  8
CONSTRUCTION
 10
1.018442
 11
0.966478
 20
-1.166908
 21
-1.03848
  0
LINE
  8
CONSTRUCTION
 10
0.966478
 11
1.373408
 20
-1.03848
 21
-1.03848
  0
LINE
  8
CONSTRUCTION
 10
1.373408
 11
1.321443
 20
-1.03848
 21
-1.166908
  0
LINE
  8
CONSTRUCTION
 10
1.321443
 11
1.425373
 20
-1.166908
 21
-1.166908
  0
LINE
  8
CONSTRUCTION
 10
1.425373
 11
1.373408
 20
-1.166908
 21
-1.03848
  0
LINE
  8
CONSTRUCTION
 10
1.373408
 11
1.780281
 20
-1.03848
 21
-1.038482
  0
LINE
  8
CONSTRUCTION
 10
1.780281
 11
1.728316
 20
-1.038482
 21
-1.166909
  0
LINE
  8
CONSTRUCTION
 10
1.728316
 11
1.832246
 20
-1.166909
 21
-1.166909
  0
LINE
  8
CONSTRUCTION
 10
1.832246
 11
1.780281
 20
-1.166909
 21
-1.038482
  0
LINE
  8
CONSTRUCTION
 10
0.0
 11
4.0
 20
-1.561751
 21
-1.561751
  0
TEXT
  8
TEXT
 10
0.10065
 20
-1.405784
 30
0.0
 40
0.224
 50
0.0
  1
DOVETAIL DESIGNS
  0
TEXT
  8
TEXT
 10
2.276036
 20
-1.551751
 30
0.0
 40
0.099
 50
0.0
  1
& MILLWORK INC.
  0
TEXT
  8
TEXT
 10
1.092458
 20
-1.640461
 30
0.0
 40
0.07
 50
0.0
  1
Established 1979
  0
TEXT
  8
TEXT
 10
0.1
 20
-1.8
 30
0.0
 40
0.1
 50
0.0
  1
Phone: (406) 248-5010    Website: www.dovetailmt.com
  0
TEXT
  8
TEXT
 10
0.0
 20
-0.5
 30
0.0
 40
0.1
 50
0.0
  1
1-1/8"x5"
  0
TEXT
  8
TEXT
 10
0.0
 20
-0.25
 30
0.0
 40
0.15625
 50
0.0
  1
CR41
  0
ENDSEC
  0
EOF
