  0
SECTION
  2
ENTITIES
  0
ARC
  8
APS_GEOMETRY
 10
0.501837
 20
6.023629
 40
0.190252
 50
139.100056
 51
150.327038
  0
ARC
  8
APS_GEOMETRY
 10
0.532293
 20
6.006274
 40
0.225306
 50
150.326541
 51
160.267266
  0
ARC
  8
APS_GEOMETRY
 10
0.558467
 20
5.996893
 40
0.25311
 50
160.268969
 51
168.863192
  0
ARC
  8
APS_GEOMETRY
 10
0.621214
 20
5.984531
 40
0.317063
 50
168.86136
 51
176.285004
  0
ARC
  8
APS_GEOMETRY
 10
0.67461
 20
5.981065
 40
0.370572
 50
176.285218
 51
188.713238
  0
ARC
  8
APS_GEOMETRY
 10
0.734313
 20
5.990218
 40
0.430972
 50
188.713691
 51
199.776827
  0
ARC
  8
APS_GEOMETRY
 10
0.707853
 20
5.980711
 40
0.402856
 50
199.777759
 51
205.505564
  0
ARC
  8
APS_GEOMETRY
 10
0.645023
 20
5.950731
 40
0.33324
 50
205.504935
 51
211.816592
  0
LINE
  8
APS_GEOMETRY
 10
0.361856
 11
0.512793
 20
5.775047
 21
5.531764
  0
LINE
  8
APS_GEOMETRY
 10
0.512793
 11
0.649668
 20
5.531764
 21
5.30438
  0
ARC
  8
APS_GEOMETRY
 10
0.35014
 20
5.103797
 40
0.360487
 50
306.092741
 51
33.808783
  0
ARC
  8
APS_GEOMETRY
 10
0.496279
 20
4.645089
 40
0.180033
 50
332.694093
 51
68.418131
  0
ARC
  8
APS_GEOMETRY
 10
0.51574
 20
4.231608
 40
0.35949
 50
357.950251
 51
66.991907
  0
LINE
  8
APS_GEOMETRY
 10
0.875
 11
0.875
 20
4.21875
 21
2.78125
  0
ARC
  8
APS_GEOMETRY
 10
0.51574
 20
2.768393
 40
0.35949
 50
293.007961
 51
2.049596
  0
ARC
  8
APS_GEOMETRY
 10
0.496278
 20
2.354911
 40
0.180033
 50
291.582038
 51
27.306228
  0
ARC
  8
APS_GEOMETRY
 10
0.35014
 20
1.896203
 40
0.360487
 50
326.191338
 51
53.907267
  0
LINE
  8
APS_GEOMETRY
 10
0.649669
 11
0.512793
 20
1.69562
 21
1.468236
  0
LINE
  8
APS_GEOMETRY
 10
0.512793
 11
0.361856
 20
1.468236
 21
1.224954
  0
ARC
  8
APS_GEOMETRY
 10
0.645025
 20
1.049271
 40
0.33324
 50
148.183777
 51
154.495638
  0
ARC
  8
APS_GEOMETRY
 10
0.707855
 20
1.019293
 40
0.402856
 50
154.495225
 51
160.222962
  0
ARC
  8
APS_GEOMETRY
 10
0.734312
 20
1.009778
 40
0.430972
 50
160.222756
 51
171.285825
  0
ARC
  8
APS_GEOMETRY
 10
0.67461
 20
1.018932
 40
0.370572
 50
171.286181
 51
183.714348
  0
ARC
  8
APS_GEOMETRY
 10
0.621213
 20
1.015471
 40
0.317063
 50
183.715363
 51
191.13893
  0
ARC
  8
APS_GEOMETRY
 10
0.558465
 20
1.003115
 40
0.25311
 50
191.138668
 51
199.732789
  0
ARC
  8
APS_GEOMETRY
 10
0.532296
 20
0.99372
 40
0.225306
 50
199.730847
 51
209.671751
  0
ARC
  8
APS_GEOMETRY
 10
0.501836
 20
0.976373
 40
0.190252
 50
209.673641
 51
220.90055
  0
LINE
  8
APS_GEOMETRY
 10
0.358034
 11
0.391925
 20
0.851805
 21
0.810079
  0
LINE
  8
APS_GEOMETRY
 10
0.391925
 11
0.469175
 20
0.810079
 21
0.727818
  0
ARC
  8
APS_GEOMETRY
 10
0.366926
 20
0.623225
 40
0.146269
 50
19.3019
 51
45.649447
  0
ARC
  8
APS_GEOMETRY
 10
0.465352
 20
0.658534
 40
0.041712
 50
350.226195
 51
18.216559
  0
LINE
  8
APS_GEOMETRY
 10
0.506458
 11
0.5
 20
0.651453
 21
0.609375
  0
ARC
  8
APS_GEOMETRY
 10
0.372008
 20
0.467911
 40
0.190772
 50
359.999937
 51
47.862193
  0
ARC
  8
APS_GEOMETRY
 10
0.453125
 20
0.467911
 40
0.109655
 50
278.192092
 51
0.0
  0
ARC
  8
APS_GEOMETRY
 10
0.287263
 20
0.325204
 40
0.184676
 50
268.134026
 51
10.662995
  0
ARC
  8
APS_GEOMETRY
 10
0.169786
 20
0.155106
 40
0.1124
 50
311.028294
 51
352.59814
  0
ARC
  8
APS_GEOMETRY
 10
0.096151
 20
0.239724
 40
0.224571
 50
282.794226
 51
311.02904
  0
ARC
  8
APS_GEOMETRY
 10
-0.052959
 20
0.896411
 40
0.897974
 50
273.381097
 51
282.793282
  0
LINE
  8
APS_GEOMETRY
 10
0.0
 11
0.0
 20
0.0
 21
1.0
  0
ARC
  8
APS_GEOMETRY
 10
-0.03125
 20
1.088388
 40
0.09375
 50
289.471221
 51
359.999788
  0
LINE
  8
APS_GEOMETRY
 10
0.0625
 11
0.0625
 20
1.088388
 21
2.911612
  0
ARC
  8
APS_GEOMETRY
 10
-0.03125
 20
2.911612
 40
0.09375
 50
0.0
 51
70.528779
  0
LINE
  8
APS_GEOMETRY
 10
0.0
 11
0.0
 20
3.0
 21
4.0
  0
ARC
  8
APS_GEOMETRY
 10
-0.03125
 20
4.088388
 40
0.09375
 50
289.471221
 51
359.999788
  0
LINE
  8
APS_GEOMETRY
 10
0.0625
 11
0.0625
 20
4.088388
 21
5.911612
  0
ARC
  8
APS_GEOMETRY
 10
-0.03125
 20
5.911612
 40
0.09375
 50
0.0
 51
70.528779
  0
LINE
  8
APS_GEOMETRY
 10
0.0
 11
0.0
 20
6.0
 21
7.0
  0
ARC
  8
APS_GEOMETRY
 10
-0.052965
 20
6.103589
 40
0.897974
 50
77.206364
 51
86.618604
  0
ARC
  8
APS_GEOMETRY
 10
0.096155
 20
6.760274
 40
0.224571
 50
48.971907
 51
77.206614
  0
ARC
  8
APS_GEOMETRY
 10
0.169786
 20
6.844896
 40
0.1124
 50
7.400995
 51
48.970913
  0
ARC
  8
APS_GEOMETRY
 10
0.287262
 20
6.674796
 40
0.184676
 50
349.336771
 51
91.865782
  0
ARC
  8
APS_GEOMETRY
 10
0.453125
 20
6.532088
 40
0.109655
 50
0.000276
 51
81.808412
  0
ARC
  8
APS_GEOMETRY
 10
0.372008
 20
6.532089
 40
0.190772
 50
312.137816
 51
0.0
  0
LINE
  8
APS_GEOMETRY
 10
0.5
 11
0.506459
 20
6.390625
 21
6.348547
  0
ARC
  8
APS_GEOMETRY
 10
0.465352
 20
6.341467
 40
0.041712
 50
341.782681
 51
9.772639
  0
ARC
  8
APS_GEOMETRY
 10
0.366926
 20
6.376775
 40
0.146269
 50
314.350377
 51
340.698099
  0
LINE
  8
APS_GEOMETRY
 10
0.469175
 11
0.391925
 20
6.272182
 21
6.189921
  0
LINE
  8
APS_GEOMETRY
 10
0.391925
 11
0.358034
 20
6.189921
 21
6.148195
  0
LINE
  8
CONSTRUCTION
 10
0.152615
 11
0.10065
 20
-1.038482
 21
-1.166909
  0
LINE
  8
CONSTRUCTION
 10
0.10065
 11
0.20458
 20
-1.166909
 21
-1.166909
  0
LINE
  8
CONSTRUCTION
 10
0.20458
 11
0.152615
 20
-1.166909
 21
-1.038482
  0
LINE
  8
CONSTRUCTION
 10
0.152615
 11
0.559547
 20
-1.038482
 21
-1.03848
  0
LINE
  8
CONSTRUCTION
 10
0.559547
 11
0.507582
 20
-1.03848
 21
-1.166908
  0
LINE
  8
CONSTRUCTION
 10
0.507582
 11
0.611512
 20
-1.166908
 21
-1.166908
  0
LINE
  8
CONSTRUCTION
 10
0.611512
 11
0.559547
 20
-1.166908
 21
-1.03848
  0
LINE
  8
CONSTRUCTION
 10
0.559547
 11
0.966478
 20
-1.03848
 21
-1.03848
  0
LINE
  8
CONSTRUCTION
 10
0.966478
 11
0.914513
 20
-1.03848
 21
-1.166908
  0
LINE
  8
CONSTRUCTION
 10
0.914513
 11
1.018442
 20
-1.166908
 21
-1.166908
  0
LINE
  8
CONSTRUCTION
 10
1.018442
 11
0.966478
 20
-1.166908
 21
-1.03848
  0
LINE
  8
CONSTRUCTION
 10
0.966478
 11
1.373408
 20
-1.03848
 21
-1.03848
  0
LINE
  8
CONSTRUCTION
 10
1.373408
 11
1.321443
 20
-1.03848
 21
-1.166908
  0
LINE
  8
CONSTRUCTION
 10
1.321443
 11
1.425373
 20
-1.166908
 21
-1.166908
  0
LINE
  8
CONSTRUCTION
 10
1.425373
 11
1.373408
 20
-1.166908
 21
-1.03848
  0
LINE
  8
CONSTRUCTION
 10
1.373408
 11
1.780281
 20
-1.03848
 21
-1.038482
  0
LINE
  8
CONSTRUCTION
 10
1.780281
 11
1.728316
 20
-1.038482
 21
-1.166909
  0
LINE
  8
CONSTRUCTION
 10
1.728316
 11
1.832246
 20
-1.166909
 21
-1.166909
  0
LINE
  8
CONSTRUCTION
 10
1.832246
 11
1.780281
 20
-1.166909
 21
-1.038482
  0
LINE
  8
CONSTRUCTION
 10
0.0
 11
4.0
 20
-1.561751
 21
-1.561751
  0
TEXT
  8
TEXT
 10
0.10065
 20
-1.405784
 30
0.0
 40
0.224
 50
0.0
  1
DOVETAIL DESIGNS
  0
TEXT
  8
TEXT
 10
2.276036
 20
-1.551751
 30
0.0
 40
0.099
 50
0.0
  1
& MILLWORK INC.
  0
TEXT
  8
TEXT
 10
1.092458
 20
-1.640461
 30
0.0
 40
0.07
 50
0.0
  1
Established 1979
  0
TEXT
  8
TEXT
 10
0.1
 20
-1.8
 30
0.0
 40
0.1
 50
0.0
  1
Phone: (406) 248-5010    Website: www.dovetailmt.com
  0
TEXT
  8
TEXT
 10
0.0
 20
-0.5
 30
0.0
 40
0.1
 50
0.0
  1
7/8"x7"
  0
TEXT
  8
TEXT
 10
0.0
 20
-0.25
 30
0.0
 40
0.15625
 50
0.0
  1
CR37
  0
ENDSEC
  0
EOF
