  0
SECTION
  2
ENTITIES
  0
ARC
  8
APS_GEOMETRY
 10
0.424372
 20
3.9375
 40
0.25
 50
62.34959
 51
90.0
  0
LINE
  8
APS_GEOMETRY
 10
0.424372
 11
0.0
 20
4.1875
 21
4.1875
  0
LINE
  8
APS_GEOMETRY
 10
0.0
 11
0.0
 20
4.1875
 21
0.0
  0
LINE
  8
APS_GEOMETRY
 10
0.0
 11
0.24
 20
0.0
 21
0.0
  0
ARC
  8
APS_GEOMETRY
 10
0.427052
 20
0.012948
 40
0.1875
 50
101.432409
 51
183.959793
  0
ARC
  8
APS_GEOMETRY
 10
0.3775
 20
0.257988
 40
0.0625
 50
281.431888
 51
359.999088
  0
LINE
  8
APS_GEOMETRY
 10
0.44
 11
0.44
 20
0.257987
 21
0.31
  0
ARC
  8
APS_GEOMETRY
 10
0.0
 20
0.917371
 40
0.75
 50
305.920833
 51
26.41181
  0
ARC
  8
APS_GEOMETRY
 10
4.254195
 20
3.030266
 40
4.0
 50
180.899095
 51
206.411819
  0
ARC
  8
APS_GEOMETRY
 10
0.116697
 20
3.175967
 40
0.25
 50
303.501717
 51
357.972379
  0
ARC
  8
APS_GEOMETRY
 10
0.429001
 20
3.164911
 40
0.0625
 50
116.924912
 51
177.973046
  0
ARC
  8
APS_GEOMETRY
 10
0.328249
 20
3.363293
 40
0.16
 50
296.924628
 51
16.81063
  0
ARC
  8
APS_GEOMETRY
 10
0.511326
 20
3.418604
 40
0.03125
 50
111.157351
 51
196.81074
  0
ARC
  8
APS_GEOMETRY
 10
0.358883
 20
3.8125
 40
0.391116
 50
291.157067
 51
62.34954
  0
LINE
  8
CONSTRUCTION
 10
0.152615
 11
0.10065
 20
-1.038482
 21
-1.166909
  0
LINE
  8
CONSTRUCTION
 10
0.10065
 11
0.20458
 20
-1.166909
 21
-1.166909
  0
LINE
  8
CONSTRUCTION
 10
0.20458
 11
0.152615
 20
-1.166909
 21
-1.038482
  0
LINE
  8
CONSTRUCTION
 10
0.152615
 11
0.559547
 20
-1.038482
 21
-1.03848
  0
LINE
  8
CONSTRUCTION
 10
0.559547
 11
0.507582
 20
-1.03848
 21
-1.166908
  0
LINE
  8
CONSTRUCTION
 10
0.507582
 11
0.611512
 20
-1.166908
 21
-1.166908
  0
LINE
  8
CONSTRUCTION
 10
0.611512
 11
0.559547
 20
-1.166908
 21
-1.03848
  0
LINE
  8
CONSTRUCTION
 10
0.559547
 11
0.966478
 20
-1.03848
 21
-1.03848
  0
LINE
  8
CONSTRUCTION
 10
0.966478
 11
0.914513
 20
-1.03848
 21
-1.166908
  0
LINE
  8
CONSTRUCTION
 10
0.914513
 11
1.018442
 20
-1.166908
 21
-1.166908
  0
LINE
  8
CONSTRUCTION
 10
1.018442
 11
0.966478
 20
-1.166908
 21
-1.03848
  0
LINE
  8
CONSTRUCTION
 10
0.966478
 11
1.373408
 20
-1.03848
 21
-1.03848
  0
LINE
  8
CONSTRUCTION
 10
1.373408
 11
1.321443
 20
-1.03848
 21
-1.166908
  0
LINE
  8
CONSTRUCTION
 10
1.321443
 11
1.425373
 20
-1.166908
 21
-1.166908
  0
LINE
  8
CONSTRUCTION
 10
1.425373
 11
1.373408
 20
-1.166908
 21
-1.03848
  0
LINE
  8
CONSTRUCTION
 10
1.373408
 11
1.780281
 20
-1.03848
 21
-1.038482
  0
LINE
  8
CONSTRUCTION
 10
1.780281
 11
1.728316
 20
-1.038482
 21
-1.166909
  0
LINE
  8
CONSTRUCTION
 10
1.728316
 11
1.832246
 20
-1.166909
 21
-1.166909
  0
LINE
  8
CONSTRUCTION
 10
1.832246
 11
1.780281
 20
-1.166909
 21
-1.038482
  0
LINE
  8
CONSTRUCTION
 10
0.0
 11
4.0
 20
-1.561751
 21
-1.561751
  0
TEXT
  8
TEXT
 10
0.10065
 20
-1.405784
 30
0.0
 40
0.224
 50
0.0
  1
DOVETAIL DESIGNS
  0
TEXT
  8
TEXT
 10
2.276036
 20
-1.551751
 30
0.0
 40
0.099
 50
0.0
  1
& MILLWORK INC.
  0
TEXT
  8
TEXT
 10
1.092458
 20
-1.640461
 30
0.0
 40
0.07
 50
0.0
  1
Established 1979
  0
TEXT
  8
TEXT
 10
0.1
 20
-1.8
 30
0.0
 40
0.1
 50
0.0
  1
Phone: (406) 248-5010    Website: www.dovetailmt.com
  0
TEXT
  8
TEXT
 10
0.0
 20
-0.25
 30
0.0
 40
0.15625
 50
0.0
  1
CR34
  0
TEXT
  8
TEXT
 10
0.0
 20
-0.5
 30
0.0
 40
0.1
 50
0.0
  1
3/4"x4-3/16"
  0
ENDSEC
  0
EOF
