  0
SECTION
  2
ENTITIES
  0
ARC
  8
APS_GEOMETRY
 10
0.097439
 20
0.015625
 40
0.015625
 50
270.0
 51
346.215527
  0
ARC
  8
APS_GEOMETRY
 10
0.355414
 20
-0.047666
 40
0.25
 50
98.861937
 51
166.215403
  0
ARC
  8
APS_GEOMETRY
 10
0.305447
 20
0.386499
 40
0.1875
 50
273.501969
 51
3.730887
  0
LINE
  8
APS_GEOMETRY
 10
0.49255
 11
0.671921
 20
0.3987
 21
0.3987
  0
ARC
  8
APS_GEOMETRY
 10
0.671921
 20
0.414325
 40
0.015625
 50
270.0
 51
0.014687
  0
LINE
  8
APS_GEOMETRY
 10
0.687546
 11
0.6875
 20
0.414329
 21
0.59375
  0
LINE
  8
APS_GEOMETRY
 10
0.6875
 11
0.71875
 20
0.59375
 21
0.59375
  0
ARC
  8
APS_GEOMETRY
 10
0.71875
 20
0.875
 40
0.28125
 50
270.0
 51
90.0
  0
LINE
  8
APS_GEOMETRY
 10
0.71875
 11
0.6875
 20
1.15625
 21
1.15625
  0
LINE
  8
APS_GEOMETRY
 10
0.6875
 11
0.687546
 20
1.15625
 21
1.335671
  0
ARC
  8
APS_GEOMETRY
 10
0.671921
 20
1.335675
 40
0.015625
 50
359.985313
 51
90.0
  0
LINE
  8
APS_GEOMETRY
 10
0.671921
 11
0.49255
 20
1.3513
 21
1.3513
  0
ARC
  8
APS_GEOMETRY
 10
0.305447
 20
1.3635
 40
0.1875
 50
356.269325
 51
86.498243
  0
ARC
  8
APS_GEOMETRY
 10
0.355414
 20
1.797665
 40
0.25
 50
193.784321
 51
261.137835
  0
ARC
  8
APS_GEOMETRY
 10
0.097439
 20
1.734375
 40
0.015625
 50
13.786204
 51
90.001497
  0
LINE
  8
APS_GEOMETRY
 10
0.097439
 11
0.0
 20
1.75
 21
1.75
  0
LINE
  8
APS_GEOMETRY
 10
0.0
 11
0.0
 20
1.75
 21
0.0
  0
LINE
  8
APS_GEOMETRY
 10
0.0
 11
0.097439
 20
0.0
 21
0.0
  0
LINE
  8
CONSTRUCTION
 10
0.152615
 11
0.10065
 20
-1.038482
 21
-1.166909
  0
LINE
  8
CONSTRUCTION
 10
0.10065
 11
0.20458
 20
-1.166909
 21
-1.166909
  0
LINE
  8
CONSTRUCTION
 10
0.20458
 11
0.152615
 20
-1.166909
 21
-1.038482
  0
LINE
  8
CONSTRUCTION
 10
0.152615
 11
0.559547
 20
-1.038482
 21
-1.03848
  0
LINE
  8
CONSTRUCTION
 10
0.559547
 11
0.507582
 20
-1.03848
 21
-1.166908
  0
LINE
  8
CONSTRUCTION
 10
0.507582
 11
0.611512
 20
-1.166908
 21
-1.166908
  0
LINE
  8
CONSTRUCTION
 10
0.611512
 11
0.559547
 20
-1.166908
 21
-1.03848
  0
LINE
  8
CONSTRUCTION
 10
0.559547
 11
0.966478
 20
-1.03848
 21
-1.03848
  0
LINE
  8
CONSTRUCTION
 10
0.966478
 11
0.914513
 20
-1.03848
 21
-1.166908
  0
LINE
  8
CONSTRUCTION
 10
0.914513
 11
1.018442
 20
-1.166908
 21
-1.166908
  0
LINE
  8
CONSTRUCTION
 10
1.018442
 11
0.966478
 20
-1.166908
 21
-1.03848
  0
LINE
  8
CONSTRUCTION
 10
0.966478
 11
1.373408
 20
-1.03848
 21
-1.03848
  0
LINE
  8
CONSTRUCTION
 10
1.373408
 11
1.321443
 20
-1.03848
 21
-1.166908
  0
LINE
  8
CONSTRUCTION
 10
1.321443
 11
1.425373
 20
-1.166908
 21
-1.166908
  0
LINE
  8
CONSTRUCTION
 10
1.425373
 11
1.373408
 20
-1.166908
 21
-1.03848
  0
LINE
  8
CONSTRUCTION
 10
1.373408
 11
1.780281
 20
-1.03848
 21
-1.038482
  0
LINE
  8
CONSTRUCTION
 10
1.780281
 11
1.728316
 20
-1.038482
 21
-1.166909
  0
LINE
  8
CONSTRUCTION
 10
1.728316
 11
1.832246
 20
-1.166909
 21
-1.166909
  0
LINE
  8
CONSTRUCTION
 10
1.832246
 11
1.780281
 20
-1.166909
 21
-1.038482
  0
LINE
  8
CONSTRUCTION
 10
0.0
 11
4.0
 20
-1.561751
 21
-1.561751
  0
TEXT
  8
TEXT
 10
0.10065
 20
-1.405784
 30
0.0
 40
0.224
 50
0.0
  1
DOVETAIL DESIGNS
  0
TEXT
  8
TEXT
 10
2.276036
 20
-1.551751
 30
0.0
 40
0.099
 50
0.0
  1
& MILLWORK INC.
  0
TEXT
  8
TEXT
 10
1.092458
 20
-1.640461
 30
0.0
 40
0.07
 50
0.0
  1
Established 1979
  0
TEXT
  8
TEXT
 10
0.1
 20
-1.8
 30
0.0
 40
0.1
 50
0.0
  1
Phone: (406) 248-5010    Website: www.dovetailmt.com
  0
TEXT
  8
TEXT
 10
0.0
 20
-0.5
 30
0.0
 40
0.1
 50
0.0
  1
1"x1-3/4"
  0
TEXT
  8
TEXT
 10
0.0
 20
-0.25
 30
0.0
 40
0.15625
 50
0.0
  1
CR33
  0
ENDSEC
  0
EOF
