  0
SECTION
  2
ENTITIES
  0
ARC
  8
APS_GEOMETRY
 10
0.1875
 20
0.0625
 40
0.0625
 50
270.0
 51
0.0
  0
LINE
  8
APS_GEOMETRY
 10
0.25
 11
0.25
 20
0.0625
 21
0.122277
  0
ARC
  8
APS_GEOMETRY
 10
0.663607
 20
0.122277
 40
0.413607
 50
174.634552
 51
180.0
  0
ARC
  8
APS_GEOMETRY
 10
0.59452
 20
0.128767
 40
0.344216
 50
168.458066
 51
174.634725
  0
ARC
  8
APS_GEOMETRY
 10
0.566054
 20
0.134575
 40
0.315163
 50
161.346368
 51
168.45721
  0
ARC
  8
APS_GEOMETRY
 10
0.507324
 20
0.154406
 40
0.253176
 50
153.002892
 51
161.347373
  0
ARC
  8
APS_GEOMETRY
 10
0.466552
 20
0.175178
 40
0.207417
 50
142.403111
 51
153.003072
  0
ARC
  8
APS_GEOMETRY
 10
0.442965
 20
0.193342
 40
0.177647
 50
130.417028
 51
142.403447
  0
ARC
  8
APS_GEOMETRY
 10
0.447633
 20
0.187844
 40
0.184859
 50
124.709142
 51
130.41369
  0
ARC
  8
APS_GEOMETRY
 10
0.466431
 20
0.160738
 40
0.217845
 50
119.521885
 51
124.713982
  0
ARC
  8
APS_GEOMETRY
 10
-1.610504
 20
3.829029
 40
3.997604
 50
299.517715
 51
299.877292
  0
ARC
  8
APS_GEOMETRY
 10
0.334157
 20
0.444042
 40
0.09378
 50
299.881347
 51
307.800496
  0
ARC
  8
APS_GEOMETRY
 10
0.346978
 20
0.427519
 40
0.072866
 50
307.797983
 51
336.997139
  0
ARC
  8
APS_GEOMETRY
 10
0.323465
 20
0.4375
 40
0.09841
 50
336.997732
 51
0.000162
  0
LINE
  8
APS_GEOMETRY
 10
0.421875
 11
0.421875
 20
0.4375
 21
0.5
  0
ARC
  8
APS_GEOMETRY
 10
0.421875
 20
0.8125
 40
0.3125
 50
270.0
 51
90.0
  0
LINE
  8
APS_GEOMETRY
 10
0.421875
 11
0.421875
 20
1.125
 21
1.1875
  0
ARC
  8
APS_GEOMETRY
 10
0.323465
 20
1.1875
 40
0.09841
 50
0.0
 51
23.002306
  0
ARC
  8
APS_GEOMETRY
 10
0.346978
 20
1.197482
 40
0.072866
 50
23.002003
 51
52.20144
  0
ARC
  8
APS_GEOMETRY
 10
0.334162
 20
1.180955
 40
0.09378
 50
52.203192
 51
60.12235
  0
ARC
  8
APS_GEOMETRY
 10
-1.610684
 20
-2.203926
 40
3.997604
 50
60.119738
 51
60.479314
  0
ARC
  8
APS_GEOMETRY
 10
0.466416
 20
1.464271
 40
0.217845
 50
235.290562
 51
240.48276
  0
ARC
  8
APS_GEOMETRY
 10
0.447646
 20
1.437146
 40
0.184859
 50
229.581444
 51
235.285569
  0
ARC
  8
APS_GEOMETRY
 10
0.44296
 20
1.431663
 40
0.177647
 50
217.598681
 51
229.585486
  0
ARC
  8
APS_GEOMETRY
 10
0.466552
 20
1.44982
 40
0.207417
 50
206.996372
 51
217.59636
  0
ARC
  8
APS_GEOMETRY
 10
0.507325
 20
1.470593
 40
0.253176
 50
198.652416
 51
206.996716
  0
ARC
  8
APS_GEOMETRY
 10
0.566055
 20
1.49042
 40
0.315163
 50
191.541895
 51
198.652817
  0
ARC
  8
APS_GEOMETRY
 10
0.59452
 20
1.496239
 40
0.344216
 50
185.366236
 51
191.542823
  0
ARC
  8
APS_GEOMETRY
 10
0.663607
 20
1.502722
 40
0.413607
 50
179.999895
 51
185.365397
  0
LINE
  8
APS_GEOMETRY
 10
0.25
 11
0.25
 20
1.502723
 21
1.5625
  0
ARC
  8
APS_GEOMETRY
 10
0.1875
 20
1.5625
 40
0.0625
 50
0.0
 51
90.0
  0
LINE
  8
APS_GEOMETRY
 10
0.1875
 11
0.0
 20
1.625
 21
1.625
  0
LINE
  8
APS_GEOMETRY
 10
0.0
 11
0.0
 20
1.625
 21
1.125
  0
ARC
  8
APS_GEOMETRY
 10
-0.03125
 20
1.036612
 40
0.09375
 50
0.000212
 51
70.528779
  0
LINE
  8
APS_GEOMETRY
 10
0.0625
 11
0.0625
 20
1.036612
 21
0.588388
  0
ARC
  8
APS_GEOMETRY
 10
-0.03125
 20
0.588388
 40
0.09375
 50
289.471221
 51
0.0
  0
LINE
  8
APS_GEOMETRY
 10
0.0
 11
0.0
 20
0.5
 21
0.0
  0
LINE
  8
APS_GEOMETRY
 10
0.0
 11
0.1875
 20
0.0
 21
0.0
  0
LINE
  8
CONSTRUCTION
 10
0.152615
 11
0.10065
 20
-1.038482
 21
-1.166909
  0
LINE
  8
CONSTRUCTION
 10
0.10065
 11
0.20458
 20
-1.166909
 21
-1.166909
  0
LINE
  8
CONSTRUCTION
 10
0.20458
 11
0.152615
 20
-1.166909
 21
-1.038482
  0
LINE
  8
CONSTRUCTION
 10
0.152615
 11
0.559547
 20
-1.038482
 21
-1.03848
  0
LINE
  8
CONSTRUCTION
 10
0.559547
 11
0.507582
 20
-1.03848
 21
-1.166908
  0
LINE
  8
CONSTRUCTION
 10
0.507582
 11
0.611512
 20
-1.166908
 21
-1.166908
  0
LINE
  8
CONSTRUCTION
 10
0.611512
 11
0.559547
 20
-1.166908
 21
-1.03848
  0
LINE
  8
CONSTRUCTION
 10
0.559547
 11
0.966478
 20
-1.03848
 21
-1.03848
  0
LINE
  8
CONSTRUCTION
 10
0.966478
 11
0.914513
 20
-1.03848
 21
-1.166908
  0
LINE
  8
CONSTRUCTION
 10
0.914513
 11
1.018442
 20
-1.166908
 21
-1.166908
  0
LINE
  8
CONSTRUCTION
 10
1.018442
 11
0.966478
 20
-1.166908
 21
-1.03848
  0
LINE
  8
CONSTRUCTION
 10
0.966478
 11
1.373408
 20
-1.03848
 21
-1.03848
  0
LINE
  8
CONSTRUCTION
 10
1.373408
 11
1.321443
 20
-1.03848
 21
-1.166908
  0
LINE
  8
CONSTRUCTION
 10
1.321443
 11
1.425373
 20
-1.166908
 21
-1.166908
  0
LINE
  8
CONSTRUCTION
 10
1.425373
 11
1.373408
 20
-1.166908
 21
-1.03848
  0
LINE
  8
CONSTRUCTION
 10
1.373408
 11
1.780281
 20
-1.03848
 21
-1.038482
  0
LINE
  8
CONSTRUCTION
 10
1.780281
 11
1.728316
 20
-1.038482
 21
-1.166909
  0
LINE
  8
CONSTRUCTION
 10
1.728316
 11
1.832246
 20
-1.166909
 21
-1.166909
  0
LINE
  8
CONSTRUCTION
 10
1.832246
 11
1.780281
 20
-1.166909
 21
-1.038482
  0
LINE
  8
CONSTRUCTION
 10
0.0
 11
4.0
 20
-1.561751
 21
-1.561751
  0
TEXT
  8
TEXT
 10
0.10065
 20
-1.405784
 30
0.0
 40
0.224
 50
0.0
  1
DOVETAIL DESIGNS
  0
TEXT
  8
TEXT
 10
2.276036
 20
-1.551751
 30
0.0
 40
0.099
 50
0.0
  1
& MILLWORK INC.
  0
TEXT
  8
TEXT
 10
1.092458
 20
-1.640461
 30
0.0
 40
0.07
 50
0.0
  1
Established 1979
  0
TEXT
  8
TEXT
 10
0.1
 20
-1.8
 30
0.0
 40
0.1
 50
0.0
  1
Phone: (406) 248-5010    Website: www.dovetailmt.com
  0
TEXT
  8
TEXT
 10
0.0
 20
-0.25
 30
0.0
 40
0.15625
 50
0.0
  1
CR26
  0
TEXT
  8
TEXT
 10
0.0
 20
-0.5
 30
0.0
 40
0.1
 50
0.0
  1
3/4"x1-5/8"
  0
ENDSEC
  0
EOF
