  0
SECTION
  2
ENTITIES
  0
ARC
  8
MOULD-NEW
 10
0.738903
 20
4.342586
 40
0.436339
 50
192.250581
 51
269.779132
  0
LINE
  8
MOULD-NEW
 10
0.737221
 11
0.737221
 20
3.90625
 21
3.8125
  0
ARC
  8
MOULD-NEW
 10
0.621749
 20
3.46875
 40
0.362626
 50
288.568146
 51
71.431911
  0
LINE
  8
MOULD-NEW
 10
0.737221
 11
0.737221
 20
3.125
 21
3.03125
  0
ARC
  8
MOULD-NEW
 10
0.945538
 20
2.758341
 40
0.34333
 50
127.355177
 51
168.272449
  0
ARC
  8
MOULD-NEW
 10
1.312387
 20
2.682187
 40
0.718
 50
168.272545
 51
203.958488
  0
LINE
  8
MOULD-NEW
 10
0.65625
 11
0.59375
 20
2.390625
 21
2.390625
  0
ARC
  8
MOULD-NEW
 10
0.359375
 20
2.390625
 40
0.234375
 50
323.130102
 51
0.0
  0
ARC
  8
MOULD-NEW
 10
0.734375
 20
2.109375
 40
0.234375
 50
143.130102
 51
180.0
  0
LINE
  8
MOULD-NEW
 10
0.5
 11
0.4375
 20
2.109375
 21
2.109375
  0
LINE
  8
MOULD-NEW
 10
0.4375
 11
0.4375
 20
2.109375
 21
1.540179
  0
LINE
  8
MOULD-NEW
 10
0.4375
 11
0.375
 20
1.540179
 21
1.53125
  0
LINE
  8
MOULD-NEW
 10
0.375
 11
0.375
 20
1.53125
 21
1.34375
  0
LINE
  8
MOULD-NEW
 10
0.375
 11
0.4375
 20
1.34375
 21
1.34375
  0
ARC
  8
MOULD-NEW
 10
0.597656
 20
1.34375
 40
0.160156
 50
180.0
 51
257.319617
  0
LINE
  8
MOULD-NEW
 10
0.5625
 11
0.5625
 20
1.1875
 21
1.125
  0
ARC
  8
MOULD-NEW
 10
0.484375
 20
0.9375
 40
0.203125
 50
292.619865
 51
67.380135
  0
LINE
  8
MOULD-NEW
 10
0.5625
 11
0.5625
 20
0.75
 21
0.6875
  0
ARC
  8
MOULD-NEW
 10
0.597656
 20
0.53125
 40
0.160156
 50
102.680312
 51
180.000072
  0
LINE
  8
MOULD-NEW
 10
0.4375
 11
0.375
 20
0.53125
 21
0.53125
  0
LINE
  8
MOULD-NEW
 10
0.375
 11
0.375
 20
0.53125
 21
0.28125
  0
LINE
  8
MOULD-NEW
 10
0.375
 11
0.265625
 20
0.28125
 21
0.265625
  0
ARC
  8
MOULD-NEW
 10
0.105035
 20
0.265625
 40
0.16059
 50
304.205458
 51
0.0
  0
ARC
  8
MOULD-NEW
 10
0.28559
 20
0.0
 40
0.16059
 50
124.205353
 51
180.000105
  0
LINE
  8
MOULD-NEW
 10
0.125
 11
0.0
 20
0.0
 21
0.0
  0
LINE
  8
MOULD-NEW
 10
0.0
 11
0.0
 20
0.0
 21
0.875
  0
ARC
  8
MOULD-NEW
 10
-0.03125
 20
0.963388
 40
0.09375
 50
289.471221
 51
359.999788
  0
LINE
  8
MOULD-NEW
 10
0.0625
 11
0.0625
 20
0.963388
 21
3.286612
  0
ARC
  8
MOULD-NEW
 10
-0.03125
 20
3.286612
 40
0.09375
 50
0.0
 51
70.528779
  0
LINE
  8
MOULD-NEW
 10
0.0
 11
0.0
 20
3.375
 21
4.25
  0
LINE
  8
MOULD-NEW
 10
0.0
 11
0.3125
 20
4.25
 21
4.25
  0
LINE
  8
CONSTRUCTION
 10
0.152615
 11
0.10065
 20
-1.038482
 21
-1.166909
  0
LINE
  8
CONSTRUCTION
 10
0.10065
 11
0.20458
 20
-1.166909
 21
-1.166909
  0
LINE
  8
CONSTRUCTION
 10
0.20458
 11
0.152615
 20
-1.166909
 21
-1.038482
  0
LINE
  8
CONSTRUCTION
 10
0.152615
 11
0.559547
 20
-1.038482
 21
-1.03848
  0
LINE
  8
CONSTRUCTION
 10
0.559547
 11
0.507582
 20
-1.03848
 21
-1.166908
  0
LINE
  8
CONSTRUCTION
 10
0.507582
 11
0.611512
 20
-1.166908
 21
-1.166908
  0
LINE
  8
CONSTRUCTION
 10
0.611512
 11
0.559547
 20
-1.166908
 21
-1.03848
  0
LINE
  8
CONSTRUCTION
 10
0.559547
 11
0.966478
 20
-1.03848
 21
-1.03848
  0
LINE
  8
CONSTRUCTION
 10
0.966478
 11
0.914513
 20
-1.03848
 21
-1.166908
  0
LINE
  8
CONSTRUCTION
 10
0.914513
 11
1.018442
 20
-1.166908
 21
-1.166908
  0
LINE
  8
CONSTRUCTION
 10
1.018442
 11
0.966478
 20
-1.166908
 21
-1.03848
  0
LINE
  8
CONSTRUCTION
 10
0.966478
 11
1.373408
 20
-1.03848
 21
-1.03848
  0
LINE
  8
CONSTRUCTION
 10
1.373408
 11
1.321443
 20
-1.03848
 21
-1.166908
  0
LINE
  8
CONSTRUCTION
 10
1.321443
 11
1.425373
 20
-1.166908
 21
-1.166908
  0
LINE
  8
CONSTRUCTION
 10
1.425373
 11
1.373408
 20
-1.166908
 21
-1.03848
  0
LINE
  8
CONSTRUCTION
 10
1.373408
 11
1.780281
 20
-1.03848
 21
-1.038482
  0
LINE
  8
CONSTRUCTION
 10
1.780281
 11
1.728316
 20
-1.038482
 21
-1.166909
  0
LINE
  8
CONSTRUCTION
 10
1.728316
 11
1.832246
 20
-1.166909
 21
-1.166909
  0
LINE
  8
CONSTRUCTION
 10
1.832246
 11
1.780281
 20
-1.166909
 21
-1.038482
  0
LINE
  8
CONSTRUCTION
 10
0.0
 11
4.0
 20
-1.561751
 21
-1.561751
  0
TEXT
  8
TEXT
 10
0.10065
 20
-1.405784
 30
0.0
 40
0.224
 50
0.0
  1
DOVETAIL DESIGNS
  0
TEXT
  8
TEXT
 10
2.276036
 20
-1.551751
 30
0.0
 40
0.099
 50
0.0
  1
& MILLWORK INC.
  0
TEXT
  8
TEXT
 10
1.092458
 20
-1.640461
 30
0.0
 40
0.07
 50
0.0
  1
Established 1979
  0
TEXT
  8
TEXT
 10
0.1
 20
-1.8
 30
0.0
 40
0.1
 50
0.0
  1
Phone: (406) 248-5010    Website: www.dovetailmt.com
  0
TEXT
  8
TEXT
 10
0.0
 20
-0.25
 30
0.0
 40
0.15625
 50
0.0
  1
CR24
  0
TEXT
  8
TEXT
 10
0.0
 20
-0.5
 30
0.0
 40
0.1
 50
0.0
  1
1"x4-1/4"
  0
ENDSEC
  0
EOF
