  0
SECTION
  2
ENTITIES
  0
ARC
  8
APS_GEOMETRY
 10
0.0625
 20
2.8125
 40
0.0625
 50
90.0
 51
180.0
  0
LINE
  8
APS_GEOMETRY
 10
0.0
 11
0.0
 20
2.8125
 21
2.375
  0
ARC
  8
APS_GEOMETRY
 10
-0.03125
 20
2.286612
 40
0.09375
 50
0.000212
 51
70.528779
  0
LINE
  8
APS_GEOMETRY
 10
0.0625
 11
0.0625
 20
2.286612
 21
0.588388
  0
ARC
  8
APS_GEOMETRY
 10
-0.03125
 20
0.588388
 40
0.09375
 50
289.471221
 51
0.0
  0
LINE
  8
APS_GEOMETRY
 10
0.0
 11
0.0
 20
0.5
 21
0.0
  0
LINE
  8
APS_GEOMETRY
 10
0.0
 11
0.296875
 20
0.0
 21
0.0
  0
ARC
  8
APS_GEOMETRY
 10
0.296875
 20
0.046875
 40
0.046875
 50
270.0
 51
0.0
  0
ARC
  8
APS_GEOMETRY
 10
0.53125
 20
0.046875
 40
0.1875
 50
90.0
 51
180.0
  0
ARC
  8
APS_GEOMETRY
 10
0.53125
 20
0.28125
 40
0.046875
 50
270.0
 51
0.0
  0
LINE
  8
APS_GEOMETRY
 10
0.578125
 11
0.578125
 20
0.28125
 21
0.4375
  0
ARC
  8
APS_GEOMETRY
 10
0.578125
 20
0.493922
 40
0.056422
 50
270.0
 51
288.341423
  0
ARC
  8
APS_GEOMETRY
 10
0.57338
 20
0.508236
 40
0.071502
 50
288.341058
 51
304.619415
  0
ARC
  8
APS_GEOMETRY
 10
0.564168
 20
0.521579
 40
0.087716
 50
304.620037
 51
318.077562
  0
ARC
  8
APS_GEOMETRY
 10
0.531162
 20
0.551216
 40
0.132075
 50
318.077599
 51
329.036762
  0
ARC
  8
APS_GEOMETRY
 10
0.507361
 20
0.565501
 40
0.159834
 50
329.035189
 51
338.152479
  0
ARC
  8
APS_GEOMETRY
 10
0.457676
 20
0.585409
 40
0.213359
 50
338.155614
 51
346.045023
  0
ARC
  8
APS_GEOMETRY
 10
0.435824
 20
0.590856
 40
0.23588
 50
346.041002
 51
353.192019
  0
ARC
  8
APS_GEOMETRY
 10
0.411505
 20
0.593748
 40
0.26037
 50
353.194647
 51
6.806419
  0
ARC
  8
APS_GEOMETRY
 10
0.435822
 20
0.596656
 40
0.23588
 50
6.804928
 51
13.955784
  0
ARC
  8
APS_GEOMETRY
 10
0.457681
 20
0.602077
 40
0.213359
 50
13.958792
 51
21.84828
  0
ARC
  8
APS_GEOMETRY
 10
0.507357
 20
0.622007
 40
0.159834
 50
21.844028
 51
30.961597
  0
ARC
  8
APS_GEOMETRY
 10
0.531165
 20
0.636281
 40
0.132075
 50
30.965359
 51
41.924008
  0
ARC
  8
APS_GEOMETRY
 10
0.564167
 20
0.665922
 40
0.087716
 50
41.921711
 51
55.379872
  0
ARC
  8
APS_GEOMETRY
 10
0.57338
 20
0.679264
 40
0.071502
 50
55.380657
 51
71.65833
  0
ARC
  8
APS_GEOMETRY
 10
0.578125
 20
0.693578
 40
0.056422
 50
71.658284
 51
90.000083
  0
LINE
  8
APS_GEOMETRY
 10
0.578125
 11
0.578125
 20
0.75
 21
0.90625
  0
ARC
  8
APS_GEOMETRY
 10
1.001044
 20
1.990546
 40
1.163855
 50
246.145073
 51
248.6922
  0
ARC
  8
APS_GEOMETRY
 10
0.640068
 20
1.174219
 40
0.271278
 50
238.41443
 51
246.144716
  0
ARC
  8
APS_GEOMETRY
 10
0.629962
 20
1.157783
 40
0.251983
 50
218.799685
 51
238.414503
  0
ARC
  8
APS_GEOMETRY
 10
0.697239
 20
1.211872
 40
0.338307
 50
202.650446
 51
218.799392
  0
ARC
  8
APS_GEOMETRY
 10
0.694052
 20
1.210545
 40
0.334855
 50
186.976889
 51
202.650875
  0
ARC
  8
APS_GEOMETRY
 10
0.679026
 20
1.208701
 40
0.319717
 50
170.982047
 51
186.976081
  0
ARC
  8
APS_GEOMETRY
 10
0.745896
 20
1.198094
 40
0.387423
 50
158.729801
 51
170.982777
  0
ARC
  8
APS_GEOMETRY
 10
1.008231
 20
1.095969
 40
0.668935
 50
150.458538
 51
158.729691
  0
ARC
  8
APS_GEOMETRY
 10
1.224751
 20
0.973255
 40
0.917812
 50
145.509059
 51
150.458213
  0
ARC
  8
APS_GEOMETRY
 10
2.651733
 20
-0.007118
 40
2.649114
 50
143.310379
 51
145.509628
  0
ARC
  8
APS_GEOMETRY
 10
-8.58445
 20
8.365009
 40
11.363177
 50
323.309974
 51
323.86447
  0
ARC
  8
APS_GEOMETRY
 10
-0.303506
 20
2.31855
 40
1.109705
 50
323.86536
 51
327.283524
  0
ARC
  8
APS_GEOMETRY
 10
-0.058438
 20
2.161136
 40
0.818436
 50
327.282545
 51
333.595451
  0
ARC
  8
APS_GEOMETRY
 10
0.15644
 20
2.054451
 40
0.578531
 50
333.595294
 51
341.949363
  0
ARC
  8
APS_GEOMETRY
 10
0.15109
 20
2.056184
 40
0.584155
 50
341.950273
 51
350.738578
  0
ARC
  8
APS_GEOMETRY
 10
0.19424
 20
2.049159
 40
0.540437
 50
350.737396
 51
0.145516
  0
ARC
  8
APS_GEOMETRY
 10
0.209804
 20
2.049193
 40
0.524873
 50
0.146136
 51
10.151704
  0
ARC
  8
APS_GEOMETRY
 10
0.284746
 20
2.062612
 40
0.448739
 50
10.151736
 51
21.300041
  0
ARC
  8
APS_GEOMETRY
 10
0.32871
 20
2.079745
 40
0.401554
 50
21.301045
 51
27.521229
  0
ARC
  8
APS_GEOMETRY
 10
0.314764
 20
2.072489
 40
0.417275
 50
27.519986
 51
33.580746
  0
ARC
  8
APS_GEOMETRY
 10
0.228943
 20
2.01551
 40
0.520289
 50
33.580889
 51
41.597967
  0
ARC
  8
APS_GEOMETRY
 10
-1.103013
 20
0.833022
 40
2.301408
 50
41.598094
 51
44.200581
  0
ARC
  8
APS_GEOMETRY
 10
0.179414
 20
2.4375
 40
0.367461
 50
359.999896
 51
21.854586
  0
ARC
  8
APS_GEOMETRY
 10
0.11967
 20
2.41354
 40
0.431831
 50
21.854437
 51
41.471687
  0
ARC
  8
APS_GEOMETRY
 10
0.060824
 20
2.361514
 40
0.510377
 50
41.472916
 51
49.513099
  0
ARC
  8
APS_GEOMETRY
 10
0.03964
 20
2.336717
 40
0.542991
 50
49.511944
 51
57.174346
  0
ARC
  8
APS_GEOMETRY
 10
0.048063
 20
2.349772
 40
0.527454
 50
57.174461
 51
73.021383
  0
ARC
  8
APS_GEOMETRY
 10
0.062977
 20
2.398621
 40
0.476379
 50
73.021326
 51
90.05741
  0
LINE
  8
CONSTRUCTION
 10
0.152615
 11
0.10065
 20
-1.038482
 21
-1.166909
  0
LINE
  8
CONSTRUCTION
 10
0.10065
 11
0.20458
 20
-1.166909
 21
-1.166909
  0
LINE
  8
CONSTRUCTION
 10
0.20458
 11
0.152615
 20
-1.166909
 21
-1.038482
  0
LINE
  8
CONSTRUCTION
 10
0.152615
 11
0.559547
 20
-1.038482
 21
-1.03848
  0
LINE
  8
CONSTRUCTION
 10
0.559547
 11
0.507582
 20
-1.03848
 21
-1.166908
  0
LINE
  8
CONSTRUCTION
 10
0.507582
 11
0.611512
 20
-1.166908
 21
-1.166908
  0
LINE
  8
CONSTRUCTION
 10
0.611512
 11
0.559547
 20
-1.166908
 21
-1.03848
  0
LINE
  8
CONSTRUCTION
 10
0.559547
 11
0.966478
 20
-1.03848
 21
-1.03848
  0
LINE
  8
CONSTRUCTION
 10
0.966478
 11
0.914513
 20
-1.03848
 21
-1.166908
  0
LINE
  8
CONSTRUCTION
 10
0.914513
 11
1.018442
 20
-1.166908
 21
-1.166908
  0
LINE
  8
CONSTRUCTION
 10
1.018442
 11
0.966478
 20
-1.166908
 21
-1.03848
  0
LINE
  8
CONSTRUCTION
 10
0.966478
 11
1.373408
 20
-1.03848
 21
-1.03848
  0
LINE
  8
CONSTRUCTION
 10
1.373408
 11
1.321443
 20
-1.03848
 21
-1.166908
  0
LINE
  8
CONSTRUCTION
 10
1.321443
 11
1.425373
 20
-1.166908
 21
-1.166908
  0
LINE
  8
CONSTRUCTION
 10
1.425373
 11
1.373408
 20
-1.166908
 21
-1.03848
  0
LINE
  8
CONSTRUCTION
 10
1.373408
 11
1.780281
 20
-1.03848
 21
-1.038482
  0
LINE
  8
CONSTRUCTION
 10
1.780281
 11
1.728316
 20
-1.038482
 21
-1.166909
  0
LINE
  8
CONSTRUCTION
 10
1.728316
 11
1.832246
 20
-1.166909
 21
-1.166909
  0
LINE
  8
CONSTRUCTION
 10
1.832246
 11
1.780281
 20
-1.166909
 21
-1.038482
  0
LINE
  8
CONSTRUCTION
 10
0.0
 11
4.0
 20
-1.561751
 21
-1.561751
  0
TEXT
  8
TEXT
 10
0.10065
 20
-1.405784
 30
0.0
 40
0.224
 50
0.0
  1
DOVETAIL DESIGNS
  0
TEXT
  8
TEXT
 10
2.276036
 20
-1.551751
 30
0.0
 40
0.099
 50
0.0
  1
& MILLWORK INC.
  0
TEXT
  8
TEXT
 10
1.092458
 20
-1.640461
 30
0.0
 40
0.07
 50
0.0
  1
Established 1979
  0
TEXT
  8
TEXT
 10
0.1
 20
-1.8
 30
0.0
 40
0.1
 50
0.0
  1
Phone: (406) 248-5010    Website: www.dovetailmt.com
  0
TEXT
  8
TEXT
 10
0.0
 20
-0.25
 30
0.0
 40
0.15625
 50
0.0
  1
CR20
  0
TEXT
  8
TEXT
 10
0.0
 20
-0.5
 30
0.0
 40
0.1
 50
0.0
  1
3/4"x2-7/8"
  0
ENDSEC
  0
EOF
