  0
SECTION
  2
ENTITIES
  0
ARC
  8
APS_GEOMETRY
 10
0.265625
 20
0.296875
 40
0.140625
 50
276.37937
 51
83.62063
  0
LINE
  8
APS_GEOMETRY
 10
0.28125
 11
0.28125
 20
0.436629
 21
0.5
  0
LINE
  8
APS_GEOMETRY
 10
0.28125
 11
0.414576
 20
0.5
 21
0.633326
  0
ARC
  8
APS_GEOMETRY
 10
0.967327
 20
0.982896
 40
0.654013
 50
146.512643
 51
212.310025
  0
ARC
  8
APS_GEOMETRY
 10
-1.391403
 20
2.543357
 40
2.174175
 50
326.512651
 51
340.357295
  0
ARC
  8
APS_GEOMETRY
 10
0.138486
 20
1.997302
 40
0.549756
 50
340.357332
 51
357.022944
  0
ARC
  8
APS_GEOMETRY
 10
0.375
 20
1.96875
 40
0.3125
 50
0.000023
 51
90.000003
  0
LINE
  8
APS_GEOMETRY
 10
0.375
 11
0.375
 20
2.28125
 21
2.375
  0
ARC
  8
APS_GEOMETRY
 10
0.408482
 20
2.625
 40
0.252232
 50
179.999972
 51
262.371879
  0
LINE
  8
APS_GEOMETRY
 10
0.15625
 11
0.0
 20
2.625
 21
2.625
  0
LINE
  8
APS_GEOMETRY
 10
0.0
 11
0.0
 20
2.625
 21
2.125
  0
ARC
  8
APS_GEOMETRY
 10
-0.03125
 20
2.036612
 40
0.09375
 50
0.000212
 51
70.528779
  0
LINE
  8
APS_GEOMETRY
 10
0.0625
 11
0.0625
 20
2.036612
 21
0.588388
  0
ARC
  8
APS_GEOMETRY
 10
-0.03125
 20
0.588388
 40
0.09375
 50
289.471221
 51
0.0
  0
LINE
  8
APS_GEOMETRY
 10
0.0
 11
0.0
 20
0.5
 21
0.0
  0
LINE
  8
APS_GEOMETRY
 10
0.0
 11
0.28125
 20
0.0
 21
0.0
  0
LINE
  8
APS_GEOMETRY
 10
0.28125
 11
0.28125
 20
0.0
 21
0.157121
  0
LINE
  8
CONSTRUCTION
 10
0.152615
 11
0.10065
 20
-1.038482
 21
-1.166909
  0
LINE
  8
CONSTRUCTION
 10
0.10065
 11
0.20458
 20
-1.166909
 21
-1.166909
  0
LINE
  8
CONSTRUCTION
 10
0.20458
 11
0.152615
 20
-1.166909
 21
-1.038482
  0
LINE
  8
CONSTRUCTION
 10
0.152615
 11
0.559547
 20
-1.038482
 21
-1.03848
  0
LINE
  8
CONSTRUCTION
 10
0.559547
 11
0.507582
 20
-1.03848
 21
-1.166908
  0
LINE
  8
CONSTRUCTION
 10
0.507582
 11
0.611512
 20
-1.166908
 21
-1.166908
  0
LINE
  8
CONSTRUCTION
 10
0.611512
 11
0.559547
 20
-1.166908
 21
-1.03848
  0
LINE
  8
CONSTRUCTION
 10
0.559547
 11
0.966478
 20
-1.03848
 21
-1.03848
  0
LINE
  8
CONSTRUCTION
 10
0.966478
 11
0.914513
 20
-1.03848
 21
-1.166908
  0
LINE
  8
CONSTRUCTION
 10
0.914513
 11
1.018442
 20
-1.166908
 21
-1.166908
  0
LINE
  8
CONSTRUCTION
 10
1.018442
 11
0.966478
 20
-1.166908
 21
-1.03848
  0
LINE
  8
CONSTRUCTION
 10
0.966478
 11
1.373408
 20
-1.03848
 21
-1.03848
  0
LINE
  8
CONSTRUCTION
 10
1.373408
 11
1.321443
 20
-1.03848
 21
-1.166908
  0
LINE
  8
CONSTRUCTION
 10
1.321443
 11
1.425373
 20
-1.166908
 21
-1.166908
  0
LINE
  8
CONSTRUCTION
 10
1.425373
 11
1.373408
 20
-1.166908
 21
-1.03848
  0
LINE
  8
CONSTRUCTION
 10
1.373408
 11
1.780281
 20
-1.03848
 21
-1.038482
  0
LINE
  8
CONSTRUCTION
 10
1.780281
 11
1.728316
 20
-1.038482
 21
-1.166909
  0
LINE
  8
CONSTRUCTION
 10
1.728316
 11
1.832246
 20
-1.166909
 21
-1.166909
  0
LINE
  8
CONSTRUCTION
 10
1.832246
 11
1.780281
 20
-1.166909
 21
-1.038482
  0
LINE
  8
CONSTRUCTION
 10
0.0
 11
4.0
 20
-1.561751
 21
-1.561751
  0
TEXT
  8
TEXT
 10
0.10065
 20
-1.405784
 30
0.0
 40
0.224
 50
0.0
  1
DOVETAIL DESIGNS
  0
TEXT
  8
TEXT
 10
2.276036
 20
-1.551751
 30
0.0
 40
0.099
 50
0.0
  1
& MILLWORK INC.
  0
TEXT
  8
TEXT
 10
1.092458
 20
-1.640461
 30
0.0
 40
0.07
 50
0.0
  1
Established 1979
  0
TEXT
  8
TEXT
 10
0.1
 20
-1.8
 30
0.0
 40
0.1
 50
0.0
  1
Phone: (406) 248-5010    Website: www.dovetailmt.com
  0
TEXT
  8
TEXT
 10
0.0
 20
-0.5
 30
0.0
 40
0.1
 50
0.0
  1
11/16"x2-5/8"
  0
TEXT
  8
TEXT
 10
0.0
 20
-0.25
 30
0.0
 40
0.15625
 50
0.0
  1
CR17
  0
ENDSEC
  0
EOF
