  0
SECTION
  2
ENTITIES
  0
ARC
  8
MOULD-NEW
 10
0.413132
 20
3.0
 40
0.272507
 50
180.0
 51
246.549776
  0
ARC
  8
MOULD-NEW
 10
0.196243
 20
2.500001
 40
0.272507
 50
359.999878
 51
66.549897
  0
LINE
  8
MOULD-NEW
 10
0.46875
 11
0.578125
 20
2.5
 21
2.5
  0
LINE
  8
MOULD-NEW
 10
0.578125
 11
0.578125
 20
2.5
 21
2.390625
  0
ARC
  8
MOULD-NEW
 10
0.443555
 20
2.132813
 40
0.29082
 50
297.56326
 51
62.436777
  0
LINE
  8
MOULD-NEW
 10
0.578125
 11
0.578125
 20
1.875001
 21
1.125
  0
ARC
  8
MOULD-NEW
 10
0.443555
 20
0.867188
 40
0.29082
 50
297.56326
 51
62.436777
  0
LINE
  8
MOULD-NEW
 10
0.578125
 11
0.578125
 20
0.609376
 21
0.5
  0
LINE
  8
MOULD-NEW
 10
0.578125
 11
0.46875
 20
0.5
 21
0.5
  0
ARC
  8
MOULD-NEW
 10
0.196243
 20
0.5
 40
0.272507
 50
293.450224
 51
0.0
  0
ARC
  8
MOULD-NEW
 10
0.413132
 20
0.000001
 40
0.272507
 50
113.450103
 51
180.000122
  0
LINE
  8
MOULD-NEW
 10
0.140625
 11
0.0
 20
0.0
 21
0.0
  0
LINE
  8
MOULD-NEW
 10
0.0
 11
0.0
 20
0.0
 21
0.5
  0
ARC
  8
MOULD-NEW
 10
-0.03125
 20
0.588388
 40
0.09375
 50
289.471221
 51
359.999788
  0
LINE
  8
MOULD-NEW
 10
0.0625
 11
0.0625
 20
0.588388
 21
2.411612
  0
ARC
  8
MOULD-NEW
 10
-0.03125
 20
2.411612
 40
0.09375
 50
0.0
 51
70.528779
  0
LINE
  8
MOULD-NEW
 10
0.0
 11
0.0
 20
2.5
 21
3.0
  0
LINE
  8
MOULD-NEW
 10
0.0
 11
0.140625
 20
3.0
 21
3.0
  0
LINE
  8
CONSTRUCTION
 10
0.152615
 11
0.10065
 20
-1.038482
 21
-1.166909
  0
LINE
  8
CONSTRUCTION
 10
0.10065
 11
0.20458
 20
-1.166909
 21
-1.166909
  0
LINE
  8
CONSTRUCTION
 10
0.20458
 11
0.152615
 20
-1.166909
 21
-1.038482
  0
LINE
  8
CONSTRUCTION
 10
0.152615
 11
0.559547
 20
-1.038482
 21
-1.03848
  0
LINE
  8
CONSTRUCTION
 10
0.559547
 11
0.507582
 20
-1.03848
 21
-1.166908
  0
LINE
  8
CONSTRUCTION
 10
0.507582
 11
0.611512
 20
-1.166908
 21
-1.166908
  0
LINE
  8
CONSTRUCTION
 10
0.611512
 11
0.559547
 20
-1.166908
 21
-1.03848
  0
LINE
  8
CONSTRUCTION
 10
0.559547
 11
0.966478
 20
-1.03848
 21
-1.03848
  0
LINE
  8
CONSTRUCTION
 10
0.966478
 11
0.914513
 20
-1.03848
 21
-1.166908
  0
LINE
  8
CONSTRUCTION
 10
0.914513
 11
1.018442
 20
-1.166908
 21
-1.166908
  0
LINE
  8
CONSTRUCTION
 10
1.018442
 11
0.966478
 20
-1.166908
 21
-1.03848
  0
LINE
  8
CONSTRUCTION
 10
0.966478
 11
1.373408
 20
-1.03848
 21
-1.03848
  0
LINE
  8
CONSTRUCTION
 10
1.373408
 11
1.321443
 20
-1.03848
 21
-1.166908
  0
LINE
  8
CONSTRUCTION
 10
1.321443
 11
1.425373
 20
-1.166908
 21
-1.166908
  0
LINE
  8
CONSTRUCTION
 10
1.425373
 11
1.373408
 20
-1.166908
 21
-1.03848
  0
LINE
  8
CONSTRUCTION
 10
1.373408
 11
1.780281
 20
-1.03848
 21
-1.038482
  0
LINE
  8
CONSTRUCTION
 10
1.780281
 11
1.728316
 20
-1.038482
 21
-1.166909
  0
LINE
  8
CONSTRUCTION
 10
1.728316
 11
1.832246
 20
-1.166909
 21
-1.166909
  0
LINE
  8
CONSTRUCTION
 10
1.832246
 11
1.780281
 20
-1.166909
 21
-1.038482
  0
LINE
  8
CONSTRUCTION
 10
0.0
 11
4.0
 20
-1.561751
 21
-1.561751
  0
TEXT
  8
TEXT
 10
0.10065
 20
-1.405784
 30
0.0
 40
0.224
 50
0.0
  1
DOVETAIL DESIGNS
  0
TEXT
  8
TEXT
 10
2.276036
 20
-1.551751
 30
0.0
 40
0.099
 50
0.0
  1
& MILLWORK INC.
  0
TEXT
  8
TEXT
 10
1.092458
 20
-1.640461
 30
0.0
 40
0.07
 50
0.0
  1
Established 1979
  0
TEXT
  8
TEXT
 10
0.1
 20
-1.8
 30
0.0
 40
0.1
 50
0.0
  1
Phone: (406) 248-5010    Website: www.dovetailmt.com
  0
TEXT
  8
TEXT
 10
0.0
 20
-0.25
 30
0.0
 40
0.15625
 50
0.0
  1
CR11
  0
TEXT
  8
TEXT
 10
0.0
 20
-0.5
 30
0.0
 40
0.1
 50
0.0
  1
3/4"x3"
  0
ENDSEC
  0
EOF
