  0
SECTION
  2
ENTITIES
  0
ARC
  8
MOULD-NEW
 10
-0.03125
 20
1.786612
 40
0.09375
 50
0.000132
 51
70.52886
  0
LINE
  8
MOULD-NEW
 10
0.0
 11
0.0
 20
1.875
 21
2.375
  0
LINE
  8
MOULD-NEW
 10
0.0
 11
0.6875
 20
2.375
 21
2.375
  0
LINE
  8
MOULD-NEW
 10
0.6875
 11
0.6875
 20
2.375
 21
1.09375
  0
LINE
  8
MOULD-NEW
 10
0.6875
 11
0.53125
 20
1.09375
 21
1.09375
  0
LINE
  8
MOULD-NEW
 10
0.53125
 11
0.53125
 20
1.09375
 21
0.96875
  0
ARC
  8
MOULD-NEW
 10
0.514844
 20
0.796875
 40
0.172656
 50
359.99985
 51
84.547453
  0
ARC
  8
MOULD-NEW
 10
0.419341
 20
0.796875
 40
0.268159
 50
313.4077
 51
359.999952
  0
ARC
  8
MOULD-NEW
 10
1.769769
 20
-0.637414
 40
1.701827
 50
133.254165
 51
141.583175
  0
ARC
  8
MOULD-NEW
 10
0.828125
 20
0.109375
 40
0.5
 50
141.583324
 51
180.00004
  0
LINE
  8
MOULD-NEW
 10
0.328125
 11
0.203125
 20
0.109375
 21
0.109375
  0
LINE
  8
MOULD-NEW
 10
0.203125
 11
0.203125
 20
0.109375
 21
0.0
  0
LINE
  8
MOULD-NEW
 10
0.203125
 11
0.0
 20
0.0
 21
0.0
  0
LINE
  8
MOULD-NEW
 10
0.0
 11
0.0
 20
0.0
 21
0.5
  0
ARC
  8
MOULD-NEW
 10
-0.03125
 20
0.588388
 40
0.09375
 50
289.471221
 51
359.999656
  0
LINE
  8
MOULD-NEW
 10
0.0625
 11
0.0625
 20
0.588388
 21
1.786612
  0
LINE
  8
CONSTRUCTION
 10
0.152615
 11
0.10065
 20
-1.038482
 21
-1.166909
  0
LINE
  8
CONSTRUCTION
 10
0.10065
 11
0.20458
 20
-1.166909
 21
-1.166909
  0
LINE
  8
CONSTRUCTION
 10
0.20458
 11
0.152615
 20
-1.166909
 21
-1.038482
  0
LINE
  8
CONSTRUCTION
 10
0.152615
 11
0.559547
 20
-1.038482
 21
-1.03848
  0
LINE
  8
CONSTRUCTION
 10
0.559547
 11
0.507582
 20
-1.03848
 21
-1.166908
  0
LINE
  8
CONSTRUCTION
 10
0.507582
 11
0.611512
 20
-1.166908
 21
-1.166908
  0
LINE
  8
CONSTRUCTION
 10
0.611512
 11
0.559547
 20
-1.166908
 21
-1.03848
  0
LINE
  8
CONSTRUCTION
 10
0.559547
 11
0.966478
 20
-1.03848
 21
-1.03848
  0
LINE
  8
CONSTRUCTION
 10
0.966478
 11
0.914513
 20
-1.03848
 21
-1.166908
  0
LINE
  8
CONSTRUCTION
 10
0.914513
 11
1.018442
 20
-1.166908
 21
-1.166908
  0
LINE
  8
CONSTRUCTION
 10
1.018442
 11
0.966478
 20
-1.166908
 21
-1.03848
  0
LINE
  8
CONSTRUCTION
 10
0.966478
 11
1.373408
 20
-1.03848
 21
-1.03848
  0
LINE
  8
CONSTRUCTION
 10
1.373408
 11
1.321443
 20
-1.03848
 21
-1.166908
  0
LINE
  8
CONSTRUCTION
 10
1.321443
 11
1.425373
 20
-1.166908
 21
-1.166908
  0
LINE
  8
CONSTRUCTION
 10
1.425373
 11
1.373408
 20
-1.166908
 21
-1.03848
  0
LINE
  8
CONSTRUCTION
 10
1.373408
 11
1.780281
 20
-1.03848
 21
-1.038482
  0
LINE
  8
CONSTRUCTION
 10
1.780281
 11
1.728316
 20
-1.038482
 21
-1.166909
  0
LINE
  8
CONSTRUCTION
 10
1.728316
 11
1.832246
 20
-1.166909
 21
-1.166909
  0
LINE
  8
CONSTRUCTION
 10
1.832246
 11
1.780281
 20
-1.166909
 21
-1.038482
  0
LINE
  8
CONSTRUCTION
 10
0.0
 11
4.0
 20
-1.561751
 21
-1.561751
  0
TEXT
  8
TEXT
 10
0.10065
 20
-1.405784
 30
0.0
 40
0.224
 50
0.0
  1
DOVETAIL DESIGNS
  0
TEXT
  8
TEXT
 10
2.276036
 20
-1.551751
 30
0.0
 40
0.099
 50
0.0
  1
& MILLWORK INC.
  0
TEXT
  8
TEXT
 10
1.092458
 20
-1.640461
 30
0.0
 40
0.07
 50
0.0
  1
Established 1979
  0
TEXT
  8
TEXT
 10
0.1
 20
-1.8
 30
0.0
 40
0.1
 50
0.0
  1
Phone: (406) 248-5010    Website: www.dovetailmt.com
  0
TEXT
  8
TEXT
 10
0.0
 20
-0.5
 30
0.0
 40
0.1
 50
0.0
  1
11/16"x2-3/8"
  0
TEXT
  8
TEXT
 10
0.0
 20
-0.25
 30
0.0
 40
0.15625
 50
0.0
  1
CN93
  0
ENDSEC
  0
EOF
