  0
SECTION
  2
ENTITIES
  0
ARC
  8
APS_GEOMETRY
 10
1.143898
 20
0.032317
 40
0.75
 50
102.596179
 51
180.0
  0
LINE
  8
APS_GEOMETRY
 10
0.393898
 11
0.393898
 20
0.032317
 21
0.0
  0
LINE
  8
APS_GEOMETRY
 10
0.393898
 11
0.0
 20
0.0
 21
0.0
  0
LINE
  8
APS_GEOMETRY
 10
0.0
 11
0.0
 20
0.0
 21
0.539004
  0
LINE
  8
APS_GEOMETRY
 10
0.0
 11
2.40818
 20
0.539004
 21
3.677406
  0
LINE
  8
APS_GEOMETRY
 10
2.40818
 11
2.804905
 20
3.677406
 21
3.677406
  0
LINE
  8
APS_GEOMETRY
 10
2.804905
 11
2.804905
 20
3.677406
 21
2.995617
  0
ARC
  8
APS_GEOMETRY
 10
2.87861
 20
2.164836
 40
0.834044
 50
95.069874
 51
114.59631
  0
ARC
  8
APS_GEOMETRY
 10
2.986235
 20
1.929729
 40
1.092614
 50
114.596465
 51
130.433095
  0
ARC
  8
APS_GEOMETRY
 10
2.946157
 20
1.976765
 40
1.030819
 50
130.43305
 51
145.862497
  0
ARC
  8
APS_GEOMETRY
 10
3.286155
 20
1.746252
 40
1.441593
 50
145.862755
 51
157.536142
  0
LINE
  8
APS_GEOMETRY
 10
1.953949
 11
1.768395
 20
2.297085
 21
1.762774
  0
ARC
  8
APS_GEOMETRY
 10
0.141158
 20
2.371504
 40
1.737369
 50
329.739847
 51
339.489766
  0
ARC
  8
APS_GEOMETRY
 10
0.835786
 20
1.966247
 40
0.933167
 50
313.72667
 51
329.739701
  0
ARC
  8
APS_GEOMETRY
 10
0.797165
 20
2.006618
 40
0.989037
 50
296.515621
 51
313.72691
  0
ARC
  8
APS_GEOMETRY
 10
0.909953
 20
1.780559
 40
0.736403
 50
275.484764
 51
296.515479
  0
LINE
  8
APS_GEOMETRY
 10
0.980339
 11
0.980339
 20
1.047528
 21
0.764265
  0
LINE
  8
CONSTRUCTION
 10
0.152615
 11
0.10065
 20
-1.038482
 21
-1.166909
  0
LINE
  8
CONSTRUCTION
 10
0.10065
 11
0.20458
 20
-1.166909
 21
-1.166909
  0
LINE
  8
CONSTRUCTION
 10
0.20458
 11
0.152615
 20
-1.166909
 21
-1.038482
  0
LINE
  8
CONSTRUCTION
 10
0.152615
 11
0.559547
 20
-1.038482
 21
-1.03848
  0
LINE
  8
CONSTRUCTION
 10
0.559547
 11
0.507582
 20
-1.03848
 21
-1.166908
  0
LINE
  8
CONSTRUCTION
 10
0.507582
 11
0.611512
 20
-1.166908
 21
-1.166908
  0
LINE
  8
CONSTRUCTION
 10
0.611512
 11
0.559547
 20
-1.166908
 21
-1.03848
  0
LINE
  8
CONSTRUCTION
 10
0.559547
 11
0.966478
 20
-1.03848
 21
-1.03848
  0
LINE
  8
CONSTRUCTION
 10
0.966478
 11
0.914513
 20
-1.03848
 21
-1.166908
  0
LINE
  8
CONSTRUCTION
 10
0.914513
 11
1.018442
 20
-1.166908
 21
-1.166908
  0
LINE
  8
CONSTRUCTION
 10
1.018442
 11
0.966478
 20
-1.166908
 21
-1.03848
  0
LINE
  8
CONSTRUCTION
 10
0.966478
 11
1.373408
 20
-1.03848
 21
-1.03848
  0
LINE
  8
CONSTRUCTION
 10
1.373408
 11
1.321443
 20
-1.03848
 21
-1.166908
  0
LINE
  8
CONSTRUCTION
 10
1.321443
 11
1.425373
 20
-1.166908
 21
-1.166908
  0
LINE
  8
CONSTRUCTION
 10
1.425373
 11
1.373408
 20
-1.166908
 21
-1.03848
  0
LINE
  8
CONSTRUCTION
 10
1.373408
 11
1.780281
 20
-1.03848
 21
-1.038482
  0
LINE
  8
CONSTRUCTION
 10
1.780281
 11
1.728316
 20
-1.038482
 21
-1.166909
  0
LINE
  8
CONSTRUCTION
 10
1.728316
 11
1.832246
 20
-1.166909
 21
-1.166909
  0
LINE
  8
CONSTRUCTION
 10
1.832246
 11
1.780281
 20
-1.166909
 21
-1.038482
  0
LINE
  8
CONSTRUCTION
 10
0.0
 11
4.0
 20
-1.561751
 21
-1.561751
  0
TEXT
  8
TEXT
 10
0.10065
 20
-1.405784
 30
0.0
 40
0.224
 50
0.0
  1
DOVETAIL DESIGNS
  0
TEXT
  8
TEXT
 10
2.276036
 20
-1.551751
 30
0.0
 40
0.099
 50
0.0
  1
& MILLWORK INC.
  0
TEXT
  8
TEXT
 10
1.092458
 20
-1.640461
 30
0.0
 40
0.07
 50
0.0
  1
Established 1979
  0
TEXT
  8
TEXT
 10
0.1
 20
-1.8
 30
0.0
 40
0.1
 50
0.0
  1
Phone: (406) 248-5010    Website: www.dovetailmt.com
  0
TEXT
  8
TEXT
 10
0.0
 20
-0.25
 30
0.0
 40
0.15625
 50
0.0
  1
CN9
  0
TEXT
  8
TEXT
 10
0.0
 20
-0.5
 30
0.0
 40
0.1
 50
0.0
  1
2-3/16"x3-11/16"
  0
TEXT
  8
TEXT
 10
0.0
 20
-0.65
 30
0.0
 40
0.1
 50
0.0
  1
(3/4"x4-5/8")
  0
ENDSEC
  0
EOF
