  0
SECTION
  2
ENTITIES
  0
ARC
  8
APS_GEOMETRY
 10
0.949775
 20
0.0
 40
0.692638
 50
159.455551
 51
180.0
  0
LINE
  8
APS_GEOMETRY
 10
0.257137
 11
0.0
 20
0.0
 21
0.0
  0
LINE
  8
APS_GEOMETRY
 10
0.0
 11
0.0
 20
0.0
 21
0.603849
  0
LINE
  8
APS_GEOMETRY
 10
0.0
 11
2.655724
 20
0.603849
 21
4.074879
  0
LINE
  8
APS_GEOMETRY
 10
2.655724
 11
3.108222
 20
4.074879
 21
4.074879
  0
LINE
  8
APS_GEOMETRY
 10
3.108222
 11
3.108222
 20
4.074879
 21
3.509178
  0
ARC
  8
APS_GEOMETRY
 10
3.416722
 20
2.106463
 40
1.436239
 50
102.403631
 51
124.320317
  0
ARC
  8
APS_GEOMETRY
 10
3.490817
 20
1.997933
 40
1.56765
 50
124.32045
 51
144.908126
  0
ARC
  8
APS_GEOMETRY
 10
3.688832
 20
1.858805
 40
1.809655
 50
144.908049
 51
154.953853
  0
ARC
  8
APS_GEOMETRY
 10
6.714984
 20
0.444715
 40
5.149901
 50
154.953821
 51
159.546497
  0
LINE
  8
APS_GEOMETRY
 10
1.889753
 11
1.760937
 20
2.244333
 21
1.896814
  0
ARC
  8
APS_GEOMETRY
 10
-1.954166
 20
3.328893
 40
3.981563
 50
333.076554
 51
338.9196
  0
ARC
  8
APS_GEOMETRY
 10
0.081333
 20
2.295173
 40
1.698619
 50
321.950454
 51
333.076693
  0
ARC
  8
APS_GEOMETRY
 10
0.268975
 20
2.148316
 40
1.46034
 50
306.464094
 51
321.950271
  0
ARC
  8
APS_GEOMETRY
 10
0.592099
 20
1.711061
 40
0.916648
 50
284.728548
 51
306.464262
  0
LINE
  8
APS_GEOMETRY
 10
0.825148
 11
0.825148
 20
0.824533
 21
0.627795
  0
ARC
  8
APS_GEOMETRY
 10
0.825148
 20
0.112441
 40
0.515354
 50
90.0
 51
114.598755
  0
ARC
  8
APS_GEOMETRY
 10
0.850095
 20
0.05795
 40
0.575284
 50
114.598834
 51
137.862097
  0
ARC
  8
APS_GEOMETRY
 10
0.888949
 20
0.022797
 40
0.62768
 50
137.862119
 51
159.455658
  0
LINE
  8
CONSTRUCTION
 10
0.152615
 11
0.10065
 20
-1.038482
 21
-1.166909
  0
LINE
  8
CONSTRUCTION
 10
0.10065
 11
0.20458
 20
-1.166909
 21
-1.166909
  0
LINE
  8
CONSTRUCTION
 10
0.20458
 11
0.152615
 20
-1.166909
 21
-1.038482
  0
LINE
  8
CONSTRUCTION
 10
0.152615
 11
0.559547
 20
-1.038482
 21
-1.03848
  0
LINE
  8
CONSTRUCTION
 10
0.559547
 11
0.507582
 20
-1.03848
 21
-1.166908
  0
LINE
  8
CONSTRUCTION
 10
0.507582
 11
0.611512
 20
-1.166908
 21
-1.166908
  0
LINE
  8
CONSTRUCTION
 10
0.611512
 11
0.559547
 20
-1.166908
 21
-1.03848
  0
LINE
  8
CONSTRUCTION
 10
0.559547
 11
0.966478
 20
-1.03848
 21
-1.03848
  0
LINE
  8
CONSTRUCTION
 10
0.966478
 11
0.914513
 20
-1.03848
 21
-1.166908
  0
LINE
  8
CONSTRUCTION
 10
0.914513
 11
1.018442
 20
-1.166908
 21
-1.166908
  0
LINE
  8
CONSTRUCTION
 10
1.018442
 11
0.966478
 20
-1.166908
 21
-1.03848
  0
LINE
  8
CONSTRUCTION
 10
0.966478
 11
1.373408
 20
-1.03848
 21
-1.03848
  0
LINE
  8
CONSTRUCTION
 10
1.373408
 11
1.321443
 20
-1.03848
 21
-1.166908
  0
LINE
  8
CONSTRUCTION
 10
1.321443
 11
1.425373
 20
-1.166908
 21
-1.166908
  0
LINE
  8
CONSTRUCTION
 10
1.425373
 11
1.373408
 20
-1.166908
 21
-1.03848
  0
LINE
  8
CONSTRUCTION
 10
1.373408
 11
1.780281
 20
-1.03848
 21
-1.038482
  0
LINE
  8
CONSTRUCTION
 10
1.780281
 11
1.728316
 20
-1.038482
 21
-1.166909
  0
LINE
  8
CONSTRUCTION
 10
1.728316
 11
1.832246
 20
-1.166909
 21
-1.166909
  0
LINE
  8
CONSTRUCTION
 10
1.832246
 11
1.780281
 20
-1.166909
 21
-1.038482
  0
LINE
  8
CONSTRUCTION
 10
0.0
 11
4.0
 20
-1.561751
 21
-1.561751
  0
TEXT
  8
TEXT
 10
0.10065
 20
-1.405784
 30
0.0
 40
0.224
 50
0.0
  1
DOVETAIL DESIGNS
  0
TEXT
  8
TEXT
 10
2.276036
 20
-1.551751
 30
0.0
 40
0.099
 50
0.0
  1
& MILLWORK INC.
  0
TEXT
  8
TEXT
 10
1.092458
 20
-1.640461
 30
0.0
 40
0.07
 50
0.0
  1
Established 1979
  0
TEXT
  8
TEXT
 10
0.1
 20
-1.8
 30
0.0
 40
0.1
 50
0.0
  1
Phone: (406) 248-5010    Website: www.dovetailmt.com
  0
TEXT
  8
TEXT
 10
0.0
 20
-0.25
 30
0.0
 40
0.15625
 50
0.0
  1
CN8
  0
TEXT
  8
TEXT
 10
0.0
 20
-0.65
 30
0.0
 40
0.1
 50
0.0
  1
(3/4"x5-1/8")
  0
TEXT
  8
TEXT
 10
0.0
 20
-0.5
 30
0.0
 40
0.1
 50
0.0
  1
3-1/8"x4-1/16"
  0
ENDSEC
  0
EOF
