  0
SECTION
  2
ENTITIES
  0
ARC
  8
APS_GEOMETRY
 10
1.204356
 20
0.000001
 40
0.968017
 50
164.323204
 51
180.000043
  0
LINE
  8
APS_GEOMETRY
 10
0.236339
 11
0.0
 20
0.0
 21
0.0
  0
LINE
  8
APS_GEOMETRY
 10
0.0
 11
0.0
 20
0.0
 21
0.718672
  0
LINE
  8
APS_GEOMETRY
 10
0.0
 11
3.866255
 20
0.718672
 21
5.757273
  0
LINE
  8
APS_GEOMETRY
 10
3.866255
 11
4.201068
 20
5.757273
 21
5.757273
  0
LINE
  8
APS_GEOMETRY
 10
4.201068
 11
4.201068
 20
5.757273
 21
5.498427
  0
LINE
  8
APS_GEOMETRY
 10
4.201068
 11
4.435735
 20
5.498427
 21
5.498427
  0
LINE
  8
APS_GEOMETRY
 10
4.435735
 11
4.435735
 20
5.498427
 21
4.887886
  0
ARC
  8
APS_GEOMETRY
 10
4.435952
 20
4.083112
 40
0.804774
 50
90.015455
 51
109.432984
  0
ARC
  8
APS_GEOMETRY
 10
4.567745
 20
3.709558
 40
1.200895
 50
109.433054
 51
123.640167
  0
ARC
  8
APS_GEOMETRY
 10
4.778404
 20
3.39298
 40
1.581157
 50
123.64031
 51
133.793157
  0
ARC
  8
APS_GEOMETRY
 10
5.964816
 20
2.155491
 40
3.295494
 50
133.792993
 51
139.835277
  0
ARC
  8
APS_GEOMETRY
 10
6.228833
 20
1.932685
 40
3.640961
 50
139.835607
 51
144.451537
  0
ARC
  8
APS_GEOMETRY
 10
6.694532
 20
1.599882
 40
4.213354
 50
144.451219
 51
148.474454
  0
ARC
  8
APS_GEOMETRY
 10
7.088196
 20
1.358396
 40
4.675184
 50
148.474388
 51
151.76654
  0
ARC
  8
APS_GEOMETRY
 10
8.989833
 20
0.337355
 40
6.833597
 50
151.766822
 51
154.216397
  0
ARC
  8
APS_GEOMETRY
 10
10.808666
 20
-0.541317
 40
8.853552
 50
154.21607
 51
155.740084
  0
ARC
  8
APS_GEOMETRY
 10
32.248756
 20
-10.203717
 40
32.370343
 50
155.740278
 51
156.308491
  0
ARC
  8
APS_GEOMETRY
 10
-22.203711
 20
13.6896
 40
27.093611
 50
335.618489
 51
336.308533
  0
ARC
  8
APS_GEOMETRY
 10
-3.519877
 20
5.221497
 40
6.580337
 50
333.572368
 51
335.618552
  0
ARC
  8
APS_GEOMETRY
 10
-2.121496
 20
4.526506
 40
5.018773
 50
330.180763
 51
333.57224
  0
ARC
  8
APS_GEOMETRY
 10
-0.622659
 20
3.667449
 40
3.291204
 50
325.490553
 51
330.180719
  0
ARC
  8
APS_GEOMETRY
 10
-0.278233
 20
3.430633
 40
2.87322
 50
319.619688
 51
325.490791
  0
ARC
  8
APS_GEOMETRY
 10
0.033071
 20
3.165887
 40
2.464563
 50
312.885547
 51
319.619529
  0
ARC
  8
APS_GEOMETRY
 10
0.157208
 20
3.032244
 40
2.282161
 50
305.169143
 51
312.885318
  0
ARC
  8
APS_GEOMETRY
 10
0.474752
 20
2.581569
 40
1.730852
 50
295.810025
 51
305.169391
  0
ARC
  8
APS_GEOMETRY
 10
0.595423
 20
2.332062
 40
1.453696
 50
284.172988
 51
295.810021
  0
ARC
  8
APS_GEOMETRY
 10
0.68228
 20
1.98813
 40
1.098966
 50
269.999938
 51
284.172897
  0
LINE
  8
APS_GEOMETRY
 10
0.682279
 11
0.682279
 20
0.889164
 21
0.658162
  0
ARC
  8
APS_GEOMETRY
 10
0.682279
 20
0.350021
 40
0.308141
 50
89.999983
 51
121.438868
  0
ARC
  8
APS_GEOMETRY
 10
0.784849
 20
0.182244
 40
0.504787
 50
121.43913
 51
145.880377
  0
ARC
  8
APS_GEOMETRY
 10
0.947382
 20
0.072117
 40
0.701116
 50
145.880168
 51
164.322903
  0
LINE
  8
CONSTRUCTION
 10
0.152615
 11
0.10065
 20
-1.038482
 21
-1.166909
  0
LINE
  8
CONSTRUCTION
 10
0.10065
 11
0.20458
 20
-1.166909
 21
-1.166909
  0
LINE
  8
CONSTRUCTION
 10
0.20458
 11
0.152615
 20
-1.166909
 21
-1.038482
  0
LINE
  8
CONSTRUCTION
 10
0.152615
 11
0.559547
 20
-1.038482
 21
-1.03848
  0
LINE
  8
CONSTRUCTION
 10
0.559547
 11
0.507582
 20
-1.03848
 21
-1.166908
  0
LINE
  8
CONSTRUCTION
 10
0.507582
 11
0.611512
 20
-1.166908
 21
-1.166908
  0
LINE
  8
CONSTRUCTION
 10
0.611512
 11
0.559547
 20
-1.166908
 21
-1.03848
  0
LINE
  8
CONSTRUCTION
 10
0.559547
 11
0.966478
 20
-1.03848
 21
-1.03848
  0
LINE
  8
CONSTRUCTION
 10
0.966478
 11
0.914513
 20
-1.03848
 21
-1.166908
  0
LINE
  8
CONSTRUCTION
 10
0.914513
 11
1.018442
 20
-1.166908
 21
-1.166908
  0
LINE
  8
CONSTRUCTION
 10
1.018442
 11
0.966478
 20
-1.166908
 21
-1.03848
  0
LINE
  8
CONSTRUCTION
 10
0.966478
 11
1.373408
 20
-1.03848
 21
-1.03848
  0
LINE
  8
CONSTRUCTION
 10
1.373408
 11
1.321443
 20
-1.03848
 21
-1.166908
  0
LINE
  8
CONSTRUCTION
 10
1.321443
 11
1.425373
 20
-1.166908
 21
-1.166908
  0
LINE
  8
CONSTRUCTION
 10
1.425373
 11
1.373408
 20
-1.166908
 21
-1.03848
  0
LINE
  8
CONSTRUCTION
 10
1.373408
 11
1.780281
 20
-1.03848
 21
-1.038482
  0
LINE
  8
CONSTRUCTION
 10
1.780281
 11
1.728316
 20
-1.038482
 21
-1.166909
  0
LINE
  8
CONSTRUCTION
 10
1.728316
 11
1.832246
 20
-1.166909
 21
-1.166909
  0
LINE
  8
CONSTRUCTION
 10
1.832246
 11
1.780281
 20
-1.166909
 21
-1.038482
  0
LINE
  8
CONSTRUCTION
 10
0.0
 11
4.0
 20
-1.561751
 21
-1.561751
  0
TEXT
  8
TEXT
 10
0.10065
 20
-1.405784
 30
0.0
 40
0.224
 50
0.0
  1
DOVETAIL DESIGNS
  0
TEXT
  8
TEXT
 10
2.276036
 20
-1.551751
 30
0.0
 40
0.099
 50
0.0
  1
& MILLWORK INC.
  0
TEXT
  8
TEXT
 10
1.092458
 20
-1.640461
 30
0.0
 40
0.07
 50
0.0
  1
Established 1979
  0
TEXT
  8
TEXT
 10
0.1
 20
-1.8
 30
0.0
 40
0.1
 50
0.0
  1
Phone: (406) 248-5010    Website: www.dovetailmt.com
  0
TEXT
  8
TEXT
 10
0.0
 20
-0.5
 30
0.0
 40
0.1
 50
0.0
  1
4-7/16"x5-3/4"
  0
TEXT
  8
TEXT
 10
0.0
 20
-0.65
 30
0.0
 40
0.1
 50
0.0
  1
(1"x7-1/8")
  0
TEXT
  8
TEXT
 10
0.0
 20
-0.25
 30
0.0
 40
0.15625
 50
0.0
  1
CN7
  0
ENDSEC
  0
EOF
