  0
SECTION
  2
ENTITIES
  0
ARC
  8
APS_GEOMETRY
 10
1.111339
 20
1.806155
 40
0.716512
 50
356.099032
 51
6.663768
  0
LINE
  8
APS_GEOMETRY
 10
1.82301
 11
1.204292
 20
1.889301
 21
1.889301
  0
LINE
  8
APS_GEOMETRY
 10
1.204292
 11
0.0
 20
1.889301
 21
0.685009
  0
LINE
  8
APS_GEOMETRY
 10
0.0
 11
0.0
 20
0.685009
 21
0.0
  0
LINE
  8
APS_GEOMETRY
 10
0.0
 11
0.331457
 20
0.0
 21
0.0
  0
ARC
  8
APS_GEOMETRY
 10
1.345141
 20
-0.135308
 40
1.022675
 50
157.651493
 51
172.397003
  0
ARC
  8
APS_GEOMETRY
 10
1.272724
 20
-0.10554
 40
0.944378
 50
142.399472
 51
157.651282
  0
ARC
  8
APS_GEOMETRY
 10
1.158125
 20
-0.01729
 40
0.799737
 50
133.565703
 51
142.399209
  0
ARC
  8
APS_GEOMETRY
 10
1.279899
 20
-0.145297
 40
0.976414
 50
125.990765
 51
133.566537
  0
ARC
  8
APS_GEOMETRY
 10
1.580149
 20
-0.558728
 40
1.487369
 50
121.998638
 51
125.990071
  0
ARC
  8
APS_GEOMETRY
 10
4.235935
 20
-4.809122
 40
6.49926
 50
120.676597
 51
121.998521
  0
LINE
  8
APS_GEOMETRY
 10
0.920066
 11
1.137081
 20
0.780636
 21
0.909476
  0
ARC
  8
APS_GEOMETRY
 10
-3.384104
 20
8.436245
 40
8.780283
 50
300.992426
 51
301.918188
  0
ARC
  8
APS_GEOMETRY
 10
-0.702486
 20
4.131127
 40
3.70829
 50
301.917907
 51
303.631866
  0
ARC
  8
APS_GEOMETRY
 10
0.179763
 20
2.804815
 40
2.115346
 50
303.632184
 51
307.32364
  0
ARC
  8
APS_GEOMETRY
 10
0.780636
 20
2.016734
 40
1.124327
 50
307.323557
 51
313.282999
  0
ARC
  8
APS_GEOMETRY
 10
0.892538
 20
1.89792
 40
0.961113
 50
313.282859
 51
320.962292
  0
ARC
  8
APS_GEOMETRY
 10
0.955427
 20
1.846931
 40
0.88015
 50
320.961945
 51
329.097008
  0
ARC
  8
APS_GEOMETRY
 10
0.972191
 20
1.836878
 40
0.860603
 50
329.098083
 51
337.670463
  0
ARC
  8
APS_GEOMETRY
 10
1.024754
 20
1.815299
 40
0.803783
 50
337.669766
 51
346.681801
  0
ARC
  8
APS_GEOMETRY
 10
1.043932
 20
1.810764
 40
0.784076
 50
346.681439
 51
356.098097
  0
LINE
  8
CONSTRUCTION
 10
0.152615
 11
0.10065
 20
-1.038482
 21
-1.166909
  0
LINE
  8
CONSTRUCTION
 10
0.10065
 11
0.20458
 20
-1.166909
 21
-1.166909
  0
LINE
  8
CONSTRUCTION
 10
0.20458
 11
0.152615
 20
-1.166909
 21
-1.038482
  0
LINE
  8
CONSTRUCTION
 10
0.152615
 11
0.559547
 20
-1.038482
 21
-1.03848
  0
LINE
  8
CONSTRUCTION
 10
0.559547
 11
0.507582
 20
-1.03848
 21
-1.166908
  0
LINE
  8
CONSTRUCTION
 10
0.507582
 11
0.611512
 20
-1.166908
 21
-1.166908
  0
LINE
  8
CONSTRUCTION
 10
0.611512
 11
0.559547
 20
-1.166908
 21
-1.03848
  0
LINE
  8
CONSTRUCTION
 10
0.559547
 11
0.966478
 20
-1.03848
 21
-1.03848
  0
LINE
  8
CONSTRUCTION
 10
0.966478
 11
0.914513
 20
-1.03848
 21
-1.166908
  0
LINE
  8
CONSTRUCTION
 10
0.914513
 11
1.018442
 20
-1.166908
 21
-1.166908
  0
LINE
  8
CONSTRUCTION
 10
1.018442
 11
0.966478
 20
-1.166908
 21
-1.03848
  0
LINE
  8
CONSTRUCTION
 10
0.966478
 11
1.373408
 20
-1.03848
 21
-1.03848
  0
LINE
  8
CONSTRUCTION
 10
1.373408
 11
1.321443
 20
-1.03848
 21
-1.166908
  0
LINE
  8
CONSTRUCTION
 10
1.321443
 11
1.425373
 20
-1.166908
 21
-1.166908
  0
LINE
  8
CONSTRUCTION
 10
1.425373
 11
1.373408
 20
-1.166908
 21
-1.03848
  0
LINE
  8
CONSTRUCTION
 10
1.373408
 11
1.780281
 20
-1.03848
 21
-1.038482
  0
LINE
  8
CONSTRUCTION
 10
1.780281
 11
1.728316
 20
-1.038482
 21
-1.166909
  0
LINE
  8
CONSTRUCTION
 10
1.728316
 11
1.832246
 20
-1.166909
 21
-1.166909
  0
LINE
  8
CONSTRUCTION
 10
1.832246
 11
1.780281
 20
-1.166909
 21
-1.038482
  0
LINE
  8
CONSTRUCTION
 10
0.0
 11
4.0
 20
-1.561751
 21
-1.561751
  0
TEXT
  8
TEXT
 10
0.10065
 20
-1.405784
 30
0.0
 40
0.224
 50
0.0
  1
DOVETAIL DESIGNS
  0
TEXT
  8
TEXT
 10
2.276036
 20
-1.551751
 30
0.0
 40
0.099
 50
0.0
  1
& MILLWORK INC.
  0
TEXT
  8
TEXT
 10
1.092458
 20
-1.640461
 30
0.0
 40
0.07
 50
0.0
  1
Established 1979
  0
TEXT
  8
TEXT
 10
0.1
 20
-1.8
 30
0.0
 40
0.1
 50
0.0
  1
Phone: (406) 248-5010    Website: www.dovetailmt.com
  0
TEXT
  8
TEXT
 10
0.0
 20
-0.65
 30
0.0
 40
0.1
 50
0.0
  1
(3/4"x2-5/8")
  0
TEXT
  8
TEXT
 10
0.0
 20
-0.5
 30
0.0
 40
0.1
 50
0.0
  1
1-13/16"x1-7/8"
  0
TEXT
  8
TEXT
 10
0.0
 20
-0.25
 30
0.0
 40
0.15625
 50
0.0
  1
CN61
  0
ENDSEC
  0
EOF
