  0
SECTION
  2
ENTITIES
  0
ARC
  8
APS_GEOMETRY
 10
1.241704
 20
0.000002
 40
0.985035
 50
166.037016
 51
180.000113
  0
LINE
  8
APS_GEOMETRY
 10
0.256669
 11
0.0
 20
0.0
 21
0.0
  0
LINE
  8
APS_GEOMETRY
 10
0.0
 11
0.0
 20
0.0
 21
0.693005
  0
LINE
  8
APS_GEOMETRY
 10
0.0
 11
2.631933
 20
0.693005
 21
4.123007
  0
LINE
  8
APS_GEOMETRY
 10
2.631933
 11
3.045525
 20
4.123007
 21
4.123007
  0
LINE
  8
APS_GEOMETRY
 10
3.045525
 11
3.045525
 20
4.123007
 21
3.942281
  0
LINE
  8
APS_GEOMETRY
 10
3.045525
 11
3.281052
 20
3.942281
 21
3.942281
  0
LINE
  8
APS_GEOMETRY
 10
3.281052
 11
3.281052
 20
3.942281
 21
3.531611
  0
ARC
  8
APS_GEOMETRY
 10
3.785523
 20
1.72122
 40
1.879363
 50
105.570646
 51
117.863299
  0
ARC
  8
APS_GEOMETRY
 10
3.83422
 20
1.629114
 40
1.98355
 50
117.863437
 51
130.289191
  0
ARC
  8
APS_GEOMETRY
 10
3.508025
 20
2.013887
 40
1.479117
 50
130.288936
 51
145.077415
  0
ARC
  8
APS_GEOMETRY
 10
4.148774
 20
1.566476
 40
2.260612
 50
145.076529
 51
155.351156
  0
LINE
  8
APS_GEOMETRY
 10
2.094147
 11
1.792669
 20
2.509278
 21
1.769459
  0
ARC
  8
APS_GEOMETRY
 10
-0.36877
 20
2.736165
 40
2.367771
 50
325.869084
 51
335.90338
  0
ARC
  8
APS_GEOMETRY
 10
0.431864
 20
2.193467
 40
1.40054
 50
310.425273
 51
325.86901
  0
ARC
  8
APS_GEOMETRY
 10
0.382007
 20
2.251992
 40
1.477423
 50
294.060966
 51
310.425362
  0
ARC
  8
APS_GEOMETRY
 10
0.535106
 20
1.90911
 40
1.101913
 50
274.043799
 51
294.06091
  0
LINE
  8
APS_GEOMETRY
 10
0.612812
 11
0.612812
 20
0.80994
 21
0.593297
  0
ARC
  8
APS_GEOMETRY
 10
0.612812
 20
0.372492
 40
0.220805
 50
90.0
 51
124.607145
  0
ARC
  8
APS_GEOMETRY
 10
0.735484
 20
0.194721
 40
0.436793
 50
124.607479
 51
149.024802
  0
ARC
  8
APS_GEOMETRY
 10
0.931283
 20
0.077181
 40
0.665163
 50
149.02424
 51
166.036622
  0
LINE
  8
CONSTRUCTION
 10
0.152615
 11
0.10065
 20
-1.038482
 21
-1.166909
  0
LINE
  8
CONSTRUCTION
 10
0.10065
 11
0.20458
 20
-1.166909
 21
-1.166909
  0
LINE
  8
CONSTRUCTION
 10
0.20458
 11
0.152615
 20
-1.166909
 21
-1.038482
  0
LINE
  8
CONSTRUCTION
 10
0.152615
 11
0.559547
 20
-1.038482
 21
-1.03848
  0
LINE
  8
CONSTRUCTION
 10
0.559547
 11
0.507582
 20
-1.03848
 21
-1.166908
  0
LINE
  8
CONSTRUCTION
 10
0.507582
 11
0.611512
 20
-1.166908
 21
-1.166908
  0
LINE
  8
CONSTRUCTION
 10
0.611512
 11
0.559547
 20
-1.166908
 21
-1.03848
  0
LINE
  8
CONSTRUCTION
 10
0.559547
 11
0.966478
 20
-1.03848
 21
-1.03848
  0
LINE
  8
CONSTRUCTION
 10
0.966478
 11
0.914513
 20
-1.03848
 21
-1.166908
  0
LINE
  8
CONSTRUCTION
 10
0.914513
 11
1.018442
 20
-1.166908
 21
-1.166908
  0
LINE
  8
CONSTRUCTION
 10
1.018442
 11
0.966478
 20
-1.166908
 21
-1.03848
  0
LINE
  8
CONSTRUCTION
 10
0.966478
 11
1.373408
 20
-1.03848
 21
-1.03848
  0
LINE
  8
CONSTRUCTION
 10
1.373408
 11
1.321443
 20
-1.03848
 21
-1.166908
  0
LINE
  8
CONSTRUCTION
 10
1.321443
 11
1.425373
 20
-1.166908
 21
-1.166908
  0
LINE
  8
CONSTRUCTION
 10
1.425373
 11
1.373408
 20
-1.166908
 21
-1.03848
  0
LINE
  8
CONSTRUCTION
 10
1.373408
 11
1.780281
 20
-1.03848
 21
-1.038482
  0
LINE
  8
CONSTRUCTION
 10
1.780281
 11
1.728316
 20
-1.038482
 21
-1.166909
  0
LINE
  8
CONSTRUCTION
 10
1.728316
 11
1.832246
 20
-1.166909
 21
-1.166909
  0
LINE
  8
CONSTRUCTION
 10
1.832246
 11
1.780281
 20
-1.166909
 21
-1.038482
  0
LINE
  8
CONSTRUCTION
 10
0.0
 11
4.0
 20
-1.561751
 21
-1.561751
  0
TEXT
  8
TEXT
 10
0.10065
 20
-1.405784
 30
0.0
 40
0.224
 50
0.0
  1
DOVETAIL DESIGNS
  0
TEXT
  8
TEXT
 10
2.276036
 20
-1.551751
 30
0.0
 40
0.099
 50
0.0
  1
& MILLWORK INC.
  0
TEXT
  8
TEXT
 10
1.092458
 20
-1.640461
 30
0.0
 40
0.07
 50
0.0
  1
Established 1979
  0
TEXT
  8
TEXT
 10
0.1
 20
-1.8
 30
0.0
 40
0.1
 50
0.0
  1
Phone: (406) 248-5010    Website: www.dovetailmt.com
  0
TEXT
  8
TEXT
 10
0.0
 20
-0.25
 30
0.0
 40
0.15625
 50
0.0
  1
CN6
  0
TEXT
  8
TEXT
 10
0.0
 20
-0.65
 30
0.0
 40
0.1
 50
0.0
  1
(7/8"x5-1/8")
  0
TEXT
  8
TEXT
 10
0.0
 20
-0.5
 30
0.0
 40
0.1
 50
0.0
  1
3-1/4"x4-1/8"
  0
ENDSEC
  0
EOF
