  0
SECTION
  2
ENTITIES
  0
ARC
  8
APS_GEOMETRY
 10
0.350906
 20
0.45017
 40
0.34375
 50
268.23444
 51
28.676339
  0
LINE
  8
APS_GEOMETRY
 10
0.652493
 11
0.698859
 20
0.615122
 21
0.718995
  0
LINE
  8
APS_GEOMETRY
 10
0.698859
 11
0.609088
 20
0.718995
 21
0.794322
  0
ARC
  8
APS_GEOMETRY
 10
2.510638
 20
-0.291735
 40
2.189843
 50
110.026335
 51
150.267455
  0
LINE
  8
APS_GEOMETRY
 10
1.760722
 11
1.760722
 20
1.7657
 21
1.898281
  0
ARC
  8
APS_GEOMETRY
 10
1.748073
 20
2.469778
 40
0.571637
 50
271.267926
 51
351.291135
  0
LINE
  8
APS_GEOMETRY
 10
2.313119
 11
2.544047
 20
2.383224
 21
2.383224
  0
LINE
  8
APS_GEOMETRY
 10
2.544047
 11
2.544047
 20
2.383224
 21
2.842157
  0
LINE
  8
APS_GEOMETRY
 10
2.544047
 11
1.62373
 20
2.842157
 21
2.842157
  0
LINE
  8
APS_GEOMETRY
 10
1.62373
 11
0.0
 20
2.842157
 21
0.907071
  0
LINE
  8
APS_GEOMETRY
 10
0.0
 11
0.0
 20
0.907071
 21
0.0
  0
LINE
  8
APS_GEOMETRY
 10
0.0
 11
0.340315
 20
0.0
 21
0.0
  0
LINE
  8
APS_GEOMETRY
 10
0.340315
 11
0.340315
 20
0.0
 21
0.106583
  0
LINE
  8
CONSTRUCTION
 10
0.152615
 11
0.10065
 20
-1.038482
 21
-1.166909
  0
LINE
  8
CONSTRUCTION
 10
0.10065
 11
0.20458
 20
-1.166909
 21
-1.166909
  0
LINE
  8
CONSTRUCTION
 10
0.20458
 11
0.152615
 20
-1.166909
 21
-1.038482
  0
LINE
  8
CONSTRUCTION
 10
0.152615
 11
0.559547
 20
-1.038482
 21
-1.03848
  0
LINE
  8
CONSTRUCTION
 10
0.559547
 11
0.507582
 20
-1.03848
 21
-1.166908
  0
LINE
  8
CONSTRUCTION
 10
0.507582
 11
0.611512
 20
-1.166908
 21
-1.166908
  0
LINE
  8
CONSTRUCTION
 10
0.611512
 11
0.559547
 20
-1.166908
 21
-1.03848
  0
LINE
  8
CONSTRUCTION
 10
0.559547
 11
0.966478
 20
-1.03848
 21
-1.03848
  0
LINE
  8
CONSTRUCTION
 10
0.966478
 11
0.914513
 20
-1.03848
 21
-1.166908
  0
LINE
  8
CONSTRUCTION
 10
0.914513
 11
1.018442
 20
-1.166908
 21
-1.166908
  0
LINE
  8
CONSTRUCTION
 10
1.018442
 11
0.966478
 20
-1.166908
 21
-1.03848
  0
LINE
  8
CONSTRUCTION
 10
0.966478
 11
1.373408
 20
-1.03848
 21
-1.03848
  0
LINE
  8
CONSTRUCTION
 10
1.373408
 11
1.321443
 20
-1.03848
 21
-1.166908
  0
LINE
  8
CONSTRUCTION
 10
1.321443
 11
1.425373
 20
-1.166908
 21
-1.166908
  0
LINE
  8
CONSTRUCTION
 10
1.425373
 11
1.373408
 20
-1.166908
 21
-1.03848
  0
LINE
  8
CONSTRUCTION
 10
1.373408
 11
1.780281
 20
-1.03848
 21
-1.038482
  0
LINE
  8
CONSTRUCTION
 10
1.780281
 11
1.728316
 20
-1.038482
 21
-1.166909
  0
LINE
  8
CONSTRUCTION
 10
1.728316
 11
1.832246
 20
-1.166909
 21
-1.166909
  0
LINE
  8
CONSTRUCTION
 10
1.832246
 11
1.780281
 20
-1.166909
 21
-1.038482
  0
LINE
  8
CONSTRUCTION
 10
0.0
 11
4.0
 20
-1.561751
 21
-1.561751
  0
TEXT
  8
TEXT
 10
0.10065
 20
-1.405784
 30
0.0
 40
0.224
 50
0.0
  1
DOVETAIL DESIGNS
  0
TEXT
  8
TEXT
 10
2.276036
 20
-1.551751
 30
0.0
 40
0.099
 50
0.0
  1
& MILLWORK INC.
  0
TEXT
  8
TEXT
 10
1.092458
 20
-1.640461
 30
0.0
 40
0.07
 50
0.0
  1
Established 1979
  0
TEXT
  8
TEXT
 10
0.1
 20
-1.8
 30
0.0
 40
0.1
 50
0.0
  1
Phone: (406) 248-5010    Website: www.dovetailmt.com
  0
TEXT
  8
TEXT
 10
0.0
 20
-0.65
 30
0.0
 40
0.1
 50
0.0
  1
(1"x3-13/16")
  0
TEXT
  8
TEXT
 10
0.0
 20
-0.5
 30
0.0
 40
0.1
 50
0.0
  1
2-9/16"x2-7/16"
  0
TEXT
  8
TEXT
 10
0.0
 20
-0.25
 30
0.0
 40
0.15625
 50
0.0
  1
CN54
  0
ENDSEC
  0
EOF
