  0
SECTION
  2
ENTITIES
  0
ARC
  8
APS_GEOMETRY
 10
0.338904
 20
0.574048
 40
0.3125
 50
271.037054
 51
31.034429
  0
LINE
  8
APS_GEOMETRY
 10
0.606672
 11
0.705389
 20
0.735158
 21
0.937883
  0
LINE
  8
APS_GEOMETRY
 10
0.705389
 11
0.609633
 20
0.937883
 21
1.018231
  0
ARC
  8
APS_GEOMETRY
 10
2.84951
 20
-0.191222
 40
2.54555
 50
113.319748
 51
151.632546
  0
LINE
  8
APS_GEOMETRY
 10
1.841823
 11
1.818712
 20
2.146382
 21
2.410538
  0
ARC
  8
APS_GEOMETRY
 10
1.867185
 20
3.177131
 40
0.768124
 50
266.381906
 51
2.833373
  0
LINE
  8
APS_GEOMETRY
 10
2.63437
 11
2.90176
 20
3.215101
 21
3.215101
  0
LINE
  8
APS_GEOMETRY
 10
2.90176
 11
2.932718
 20
3.215101
 21
3.495078
  0
LINE
  8
APS_GEOMETRY
 10
2.932718
 11
2.239221
 20
3.495078
 21
3.495078
  0
LINE
  8
APS_GEOMETRY
 10
2.239221
 11
0.0
 20
3.495078
 21
0.826478
  0
LINE
  8
APS_GEOMETRY
 10
0.0
 11
0.0
 20
0.826478
 21
0.0
  0
LINE
  8
APS_GEOMETRY
 10
0.0
 11
0.254112
 20
0.0
 21
0.011141
  0
LINE
  8
APS_GEOMETRY
 10
0.254112
 11
0.34456
 20
0.011141
 21
0.261599
  0
LINE
  8
CONSTRUCTION
 10
0.152615
 11
0.10065
 20
-1.038482
 21
-1.166909
  0
LINE
  8
CONSTRUCTION
 10
0.10065
 11
0.20458
 20
-1.166909
 21
-1.166909
  0
LINE
  8
CONSTRUCTION
 10
0.20458
 11
0.152615
 20
-1.166909
 21
-1.038482
  0
LINE
  8
CONSTRUCTION
 10
0.152615
 11
0.559547
 20
-1.038482
 21
-1.03848
  0
LINE
  8
CONSTRUCTION
 10
0.559547
 11
0.507582
 20
-1.03848
 21
-1.166908
  0
LINE
  8
CONSTRUCTION
 10
0.507582
 11
0.611512
 20
-1.166908
 21
-1.166908
  0
LINE
  8
CONSTRUCTION
 10
0.611512
 11
0.559547
 20
-1.166908
 21
-1.03848
  0
LINE
  8
CONSTRUCTION
 10
0.559547
 11
0.966478
 20
-1.03848
 21
-1.03848
  0
LINE
  8
CONSTRUCTION
 10
0.966478
 11
0.914513
 20
-1.03848
 21
-1.166908
  0
LINE
  8
CONSTRUCTION
 10
0.914513
 11
1.018442
 20
-1.166908
 21
-1.166908
  0
LINE
  8
CONSTRUCTION
 10
1.018442
 11
0.966478
 20
-1.166908
 21
-1.03848
  0
LINE
  8
CONSTRUCTION
 10
0.966478
 11
1.373408
 20
-1.03848
 21
-1.03848
  0
LINE
  8
CONSTRUCTION
 10
1.373408
 11
1.321443
 20
-1.03848
 21
-1.166908
  0
LINE
  8
CONSTRUCTION
 10
1.321443
 11
1.425373
 20
-1.166908
 21
-1.166908
  0
LINE
  8
CONSTRUCTION
 10
1.425373
 11
1.373408
 20
-1.166908
 21
-1.03848
  0
LINE
  8
CONSTRUCTION
 10
1.373408
 11
1.780281
 20
-1.03848
 21
-1.038482
  0
LINE
  8
CONSTRUCTION
 10
1.780281
 11
1.728316
 20
-1.038482
 21
-1.166909
  0
LINE
  8
CONSTRUCTION
 10
1.728316
 11
1.832246
 20
-1.166909
 21
-1.166909
  0
LINE
  8
CONSTRUCTION
 10
1.832246
 11
1.780281
 20
-1.166909
 21
-1.038482
  0
LINE
  8
CONSTRUCTION
 10
0.0
 11
4.0
 20
-1.561751
 21
-1.561751
  0
TEXT
  8
TEXT
 10
0.10065
 20
-1.405784
 30
0.0
 40
0.224
 50
0.0
  1
DOVETAIL DESIGNS
  0
TEXT
  8
TEXT
 10
2.276036
 20
-1.551751
 30
0.0
 40
0.099
 50
0.0
  1
& MILLWORK INC.
  0
TEXT
  8
TEXT
 10
1.092458
 20
-1.640461
 30
0.0
 40
0.07
 50
0.0
  1
Established 1979
  0
TEXT
  8
TEXT
 10
0.1
 20
-1.8
 30
0.0
 40
0.1
 50
0.0
  1
Phone: (406) 248-5010    Website: www.dovetailmt.com
  0
TEXT
  8
TEXT
 10
0.0
 20
-0.65
 30
0.0
 40
0.1
 50
0.0
  1
(3/4"x4-9/16")
  0
TEXT
  8
TEXT
 10
0.0
 20
-0.5
 30
0.0
 40
0.1
 50
0.0
  1
2-15/16"x3-1/2"
  0
TEXT
  8
TEXT
 10
0.0
 20
-0.25
 30
0.0
 40
0.15625
 50
0.0
  1
CN51
  0
ENDSEC
  0
EOF
