  0
SECTION
  2
ENTITIES
  0
ARC
  8
APS_GEOMETRY
 10
2.839476
 20
3.104641
 40
0.453125
 50
271.397181
 51
1.397181
  0
LINE
  8
APS_GEOMETRY
 10
3.292466
 11
2.585359
 20
3.11569
 21
3.115689
  0
LINE
  8
APS_GEOMETRY
 10
2.585359
 11
0.0
 20
3.115689
 21
0.53033
  0
LINE
  8
APS_GEOMETRY
 10
0.0
 11
0.0
 20
0.53033
 21
0.0
  0
LINE
  8
APS_GEOMETRY
 10
0.0
 11
0.265165
 20
0.0
 21
0.0
  0
ARC
  8
APS_GEOMETRY
 10
0.729204
 20
-0.044194
 40
0.466139
 50
84.559703
 51
174.559691
  0
LINE
  8
APS_GEOMETRY
 10
0.773398
 11
0.805639
 20
0.419845
 21
0.67062
  0
ARC
  8
APS_GEOMETRY
 10
0.623522
 20
1.982618
 40
1.324577
 50
277.902657
 51
290.437551
  0
ARC
  8
APS_GEOMETRY
 10
0.656772
 20
1.893419
 40
1.229383
 50
290.437112
 51
303.891224
  0
ARC
  8
APS_GEOMETRY
 10
0.792464
 20
1.691411
 40
0.986032
 50
303.891512
 51
319.8246
  0
ARC
  8
APS_GEOMETRY
 10
0.468981
 20
1.964537
 40
1.409398
 50
319.824633
 51
331.750377
  0
LINE
  8
APS_GEOMETRY
 10
1.710511
 11
1.956416
 20
1.297449
 21
1.826159
  0
ARC
  8
APS_GEOMETRY
 10
3.578511
 20
1.02513
 40
1.809099
 50
143.958371
 51
153.718752
  0
ARC
  8
APS_GEOMETRY
 10
2.851527
 20
1.554129
 40
0.910019
 50
127.266777
 51
143.95869
  0
ARC
  8
APS_GEOMETRY
 10
2.919713
 20
1.464502
 40
1.022635
 50
110.646568
 51
127.266375
  0
ARC
  8
APS_GEOMETRY
 10
2.900793
 20
1.514729
 40
0.968962
 50
92.97379
 51
110.64685
  0
LINE
  8
APS_GEOMETRY
 10
2.850524
 11
2.850525
 20
2.482386
 21
2.651651
  0
LINE
  8
CONSTRUCTION
 10
0.152615
 11
0.10065
 20
-1.038482
 21
-1.166909
  0
LINE
  8
CONSTRUCTION
 10
0.10065
 11
0.20458
 20
-1.166909
 21
-1.166909
  0
LINE
  8
CONSTRUCTION
 10
0.20458
 11
0.152615
 20
-1.166909
 21
-1.038482
  0
LINE
  8
CONSTRUCTION
 10
0.152615
 11
0.559547
 20
-1.038482
 21
-1.03848
  0
LINE
  8
CONSTRUCTION
 10
0.559547
 11
0.507582
 20
-1.03848
 21
-1.166908
  0
LINE
  8
CONSTRUCTION
 10
0.507582
 11
0.611512
 20
-1.166908
 21
-1.166908
  0
LINE
  8
CONSTRUCTION
 10
0.611512
 11
0.559547
 20
-1.166908
 21
-1.03848
  0
LINE
  8
CONSTRUCTION
 10
0.559547
 11
0.966478
 20
-1.03848
 21
-1.03848
  0
LINE
  8
CONSTRUCTION
 10
0.966478
 11
0.914513
 20
-1.03848
 21
-1.166908
  0
LINE
  8
CONSTRUCTION
 10
0.914513
 11
1.018442
 20
-1.166908
 21
-1.166908
  0
LINE
  8
CONSTRUCTION
 10
1.018442
 11
0.966478
 20
-1.166908
 21
-1.03848
  0
LINE
  8
CONSTRUCTION
 10
0.966478
 11
1.373408
 20
-1.03848
 21
-1.03848
  0
LINE
  8
CONSTRUCTION
 10
1.373408
 11
1.321443
 20
-1.03848
 21
-1.166908
  0
LINE
  8
CONSTRUCTION
 10
1.321443
 11
1.425373
 20
-1.166908
 21
-1.166908
  0
LINE
  8
CONSTRUCTION
 10
1.425373
 11
1.373408
 20
-1.166908
 21
-1.03848
  0
LINE
  8
CONSTRUCTION
 10
1.373408
 11
1.780281
 20
-1.03848
 21
-1.038482
  0
LINE
  8
CONSTRUCTION
 10
1.780281
 11
1.728316
 20
-1.038482
 21
-1.166909
  0
LINE
  8
CONSTRUCTION
 10
1.728316
 11
1.832246
 20
-1.166909
 21
-1.166909
  0
LINE
  8
CONSTRUCTION
 10
1.832246
 11
1.780281
 20
-1.166909
 21
-1.038482
  0
LINE
  8
CONSTRUCTION
 10
0.0
 11
4.0
 20
-1.561751
 21
-1.561751
  0
TEXT
  8
TEXT
 10
0.10065
 20
-1.405784
 30
0.0
 40
0.224
 50
0.0
  1
DOVETAIL DESIGNS
  0
TEXT
  8
TEXT
 10
2.276036
 20
-1.551751
 30
0.0
 40
0.099
 50
0.0
  1
& MILLWORK INC.
  0
TEXT
  8
TEXT
 10
1.092458
 20
-1.640461
 30
0.0
 40
0.07
 50
0.0
  1
Established 1979
  0
TEXT
  8
TEXT
 10
0.1
 20
-1.8
 30
0.0
 40
0.1
 50
0.0
  1
Phone: (406) 248-5010    Website: www.dovetailmt.com
  0
TEXT
  8
TEXT
 10
0.0
 20
-0.5
 30
0.0
 40
0.1
 50
0.0
  1
3-5/16"x3-1/8"
  0
TEXT
  8
TEXT
 10
0.0
 20
-0.65
 30
0.0
 40
0.1
 50
0.0
  1
(3/4"x4-5/8")
  0
TEXT
  8
TEXT
 10
0.0
 20
-0.25
 30
0.0
 40
0.15625
 50
0.0
  1
CN5
  0
ENDSEC
  0
EOF
