  0
SECTION
  2
ENTITIES
  0
ARC
  8
APS_GEOMETRY
 10
15.501372
 20
-20.156579
 40
26.767933
 50
113.93789
 51
114.716578
  0
ARC
  8
APS_GEOMETRY
 10
7.00207
 20
-1.691825
 40
6.440974
 50
114.716655
 51
116.992868
  0
ARC
  8
APS_GEOMETRY
 10
6.210485
 20
-0.137808
 40
4.696962
 50
116.992677
 51
120.803288
  0
ARC
  8
APS_GEOMETRY
 10
5.602707
 20
0.881618
 40
3.510108
 50
120.803308
 51
125.66592
  0
ARC
  8
APS_GEOMETRY
 10
6.156148
 20
0.110472
 40
4.459299
 50
125.666037
 51
129.229935
  0
ARC
  8
APS_GEOMETRY
 10
9.367528
 20
-3.822928
 40
9.537152
 50
129.229723
 51
131.246504
  0
ARC
  8
APS_GEOMETRY
 10
22.152286
 20
-18.4028
 40
28.928457
 50
131.246692
 51
131.818945
  0
ARC
  8
APS_GEOMETRY
 10
21.352976
 20
-17.509587
 40
27.729822
 50
131.818709
 51
132.491017
  0
ARC
  8
APS_GEOMETRY
 10
11.931777
 20
-7.224828
 40
13.782233
 50
132.491262
 51
133.849436
  0
ARC
  8
APS_GEOMETRY
 10
7.91364
 20
-3.04199
 40
7.982098
 50
133.849406
 51
135.894591
  0
ARC
  8
APS_GEOMETRY
 10
7.912662
 20
-3.041079
 40
7.980762
 50
135.894398
 51
137.939959
  0
ARC
  8
APS_GEOMETRY
 10
12.216957
 20
-6.924822
 40
13.778211
 50
137.940074
 51
139.298627
  0
ARC
  8
APS_GEOMETRY
 10
22.778519
 20
-16.009584
 40
27.709452
 50
139.298713
 51
139.971392
  0
ARC
  8
APS_GEOMETRY
 10
23.735907
 20
-16.81376
 40
28.959769
 50
139.971366
 51
140.543115
  0
ARC
  8
APS_GEOMETRY
 10
8.742871
 20
-4.473438
 40
9.541358
 50
140.5429
 51
142.558843
  0
ARC
  8
APS_GEOMETRY
 10
4.708595
 20
-1.384375
 40
4.460247
 50
142.55917
 51
146.122215
  0
ARC
  8
APS_GEOMETRY
 10
3.919986
 20
-0.85492
 40
3.510391
 50
146.121887
 51
150.98438
  0
ARC
  8
APS_GEOMETRY
 10
4.956515
 20
-1.429812
 40
4.695672
 50
150.984749
 51
154.796203
  0
ARC
  8
APS_GEOMETRY
 10
6.534108
 20
-2.172368
 40
6.439286
 50
154.79565
 51
157.072688
  0
ARC
  8
APS_GEOMETRY
 10
25.228776
 20
-10.079517
 40
26.737405
 50
157.073262
 51
157.853142
  0
LINE
  8
APS_GEOMETRY
 10
0.46404
 11
0.0
 20
0.0
 21
0.0
  0
LINE
  8
APS_GEOMETRY
 10
0.0
 11
0.0
 20
0.0
 21
0.950175
  0
LINE
  8
APS_GEOMETRY
 10
0.0
 11
3.778602
 20
0.950175
 21
4.728777
  0
LINE
  8
APS_GEOMETRY
 10
3.778602
 11
4.640388
 20
4.728777
 21
4.728777
  0
LINE
  8
APS_GEOMETRY
 10
4.640388
 11
4.640388
 20
4.728777
 21
4.308933
  0
LINE
  8
CONSTRUCTION
 10
0.152615
 11
0.10065
 20
-1.038482
 21
-1.166909
  0
LINE
  8
CONSTRUCTION
 10
0.10065
 11
0.20458
 20
-1.166909
 21
-1.166909
  0
LINE
  8
CONSTRUCTION
 10
0.20458
 11
0.152615
 20
-1.166909
 21
-1.038482
  0
LINE
  8
CONSTRUCTION
 10
0.152615
 11
0.559547
 20
-1.038482
 21
-1.03848
  0
LINE
  8
CONSTRUCTION
 10
0.559547
 11
0.507582
 20
-1.03848
 21
-1.166908
  0
LINE
  8
CONSTRUCTION
 10
0.507582
 11
0.611512
 20
-1.166908
 21
-1.166908
  0
LINE
  8
CONSTRUCTION
 10
0.611512
 11
0.559547
 20
-1.166908
 21
-1.03848
  0
LINE
  8
CONSTRUCTION
 10
0.559547
 11
0.966478
 20
-1.03848
 21
-1.03848
  0
LINE
  8
CONSTRUCTION
 10
0.966478
 11
0.914513
 20
-1.03848
 21
-1.166908
  0
LINE
  8
CONSTRUCTION
 10
0.914513
 11
1.018442
 20
-1.166908
 21
-1.166908
  0
LINE
  8
CONSTRUCTION
 10
1.018442
 11
0.966478
 20
-1.166908
 21
-1.03848
  0
LINE
  8
CONSTRUCTION
 10
0.966478
 11
1.373408
 20
-1.03848
 21
-1.03848
  0
LINE
  8
CONSTRUCTION
 10
1.373408
 11
1.321443
 20
-1.03848
 21
-1.166908
  0
LINE
  8
CONSTRUCTION
 10
1.321443
 11
1.425373
 20
-1.166908
 21
-1.166908
  0
LINE
  8
CONSTRUCTION
 10
1.425373
 11
1.373408
 20
-1.166908
 21
-1.03848
  0
LINE
  8
CONSTRUCTION
 10
1.373408
 11
1.780281
 20
-1.03848
 21
-1.038482
  0
LINE
  8
CONSTRUCTION
 10
1.780281
 11
1.728316
 20
-1.038482
 21
-1.166909
  0
LINE
  8
CONSTRUCTION
 10
1.728316
 11
1.832246
 20
-1.166909
 21
-1.166909
  0
LINE
  8
CONSTRUCTION
 10
1.832246
 11
1.780281
 20
-1.166909
 21
-1.038482
  0
LINE
  8
CONSTRUCTION
 10
0.0
 11
4.0
 20
-1.561751
 21
-1.561751
  0
TEXT
  8
TEXT
 10
0.10065
 20
-1.405784
 30
0.0
 40
0.224
 50
0.0
  1
DOVETAIL DESIGNS
  0
TEXT
  8
TEXT
 10
2.276036
 20
-1.551751
 30
0.0
 40
0.099
 50
0.0
  1
& MILLWORK INC.
  0
TEXT
  8
TEXT
 10
1.092458
 20
-1.640461
 30
0.0
 40
0.07
 50
0.0
  1
Established 1979
  0
TEXT
  8
TEXT
 10
0.1
 20
-1.8
 30
0.0
 40
0.1
 50
0.0
  1
Phone: (406) 248-5010    Website: www.dovetailmt.com
  0
TEXT
  8
TEXT
 10
0.0
 20
-0.25
 30
0.0
 40
0.15625
 50
0.0
  1
CN47
  0
TEXT
  8
TEXT
 10
0.0
 20
-0.5
 30
0.0
 40
0.1
 50
0.0
  1
4-5/8"x4-3/4"
  0
TEXT
  8
TEXT
 10
0.0
 20
-0.65
 30
0.0
 40
0.1
 50
0.0
  1
(1"x6-5/8")
  0
ENDSEC
  0
EOF
