  0
SECTION
  2
ENTITIES
  0
ARC
  8
APS_GEOMETRY
 10
4.830411
 20
-0.397004
 40
4.494426
 50
173.915705
 51
174.932311
  0
LINE
  8
APS_GEOMETRY
 10
0.353554
 11
0.0
 20
0.0
 21
0.0
  0
LINE
  8
APS_GEOMETRY
 10
0.0
 11
0.0
 20
0.0
 21
0.685009
  0
LINE
  8
APS_GEOMETRY
 10
0.0
 11
0.596622
 20
0.685009
 21
1.281631
  0
LINE
  8
APS_GEOMETRY
 10
0.596622
 11
1.193243
 20
1.281631
 21
1.281631
  0
LINE
  8
APS_GEOMETRY
 10
1.193243
 11
1.193243
 20
1.281631
 21
0.883883
  0
ARC
  8
APS_GEOMETRY
 10
1.416316
 20
-1.415519
 40
2.310197
 50
95.541116
 51
97.449207
  0
ARC
  8
APS_GEOMETRY
 10
1.359999
 20
-0.984769
 40
1.875781
 50
97.44932
 51
99.527598
  0
ARC
  8
APS_GEOMETRY
 10
1.328949
 20
-0.799858
 40
1.688282
 50
99.527113
 51
101.990911
  0
ARC
  8
APS_GEOMETRY
 10
1.259529
 20
-0.472934
 40
1.354068
 50
101.991542
 51
104.903957
  0
ARC
  8
APS_GEOMETRY
 10
1.221053
 20
-0.328372
 40
1.204474
 50
104.903969
 51
108.351022
  0
ARC
  8
APS_GEOMETRY
 10
1.140133
 20
-0.0845
 40
0.947527
 50
108.349519
 51
112.424699
  0
ARC
  8
APS_GEOMETRY
 10
1.098435
 20
0.016629
 40
0.838139
 50
112.426893
 51
117.234099
  0
ARC
  8
APS_GEOMETRY
 10
1.01606
 20
0.17665
 40
0.65816
 50
117.232969
 51
122.885231
  0
ARC
  8
APS_GEOMETRY
 10
0.977018
 20
0.237027
 40
0.58626
 50
122.88491
 51
129.459085
  0
ARC
  8
APS_GEOMETRY
 10
0.911999
 20
0.316016
 40
0.483952
 50
129.459052
 51
136.958119
  0
ARC
  8
APS_GEOMETRY
 10
0.911603
 20
0.316397
 40
0.483403
 50
136.959087
 51
144.451551
  0
ARC
  8
APS_GEOMETRY
 10
0.997191
 20
0.255219
 40
0.588608
 50
144.449954
 51
150.979835
  0
ARC
  8
APS_GEOMETRY
 10
1.064468
 20
0.217909
 40
0.665538
 50
150.980905
 51
156.52911
  0
ARC
  8
APS_GEOMETRY
 10
1.250871
 20
0.136989
 40
0.868748
 50
156.530157
 51
161.161059
  0
ARC
  8
APS_GEOMETRY
 10
1.374806
 20
0.094671
 40
0.999708
 50
161.159289
 51
164.979542
  0
ARC
  8
APS_GEOMETRY
 10
1.702927
 20
0.006645
 40
1.339432
 50
164.980323
 51
168.08811
  0
ARC
  8
APS_GEOMETRY
 10
1.920273
 20
-0.03922
 40
1.561564
 50
168.08755
 51
170.568477
  0
ARC
  8
APS_GEOMETRY
 10
2.532404
 20
-0.140879
 40
2.182079
 50
170.569103
 51
172.497123
  0
ARC
  8
APS_GEOMETRY
 10
2.975996
 20
-0.199309
 40
2.629503
 50
172.496972
 51
173.916339
  0
LINE
  8
CONSTRUCTION
 10
0.152615
 11
0.10065
 20
-1.038482
 21
-1.166909
  0
LINE
  8
CONSTRUCTION
 10
0.10065
 11
0.20458
 20
-1.166909
 21
-1.166909
  0
LINE
  8
CONSTRUCTION
 10
0.20458
 11
0.152615
 20
-1.166909
 21
-1.038482
  0
LINE
  8
CONSTRUCTION
 10
0.152615
 11
0.559547
 20
-1.038482
 21
-1.03848
  0
LINE
  8
CONSTRUCTION
 10
0.559547
 11
0.507582
 20
-1.03848
 21
-1.166908
  0
LINE
  8
CONSTRUCTION
 10
0.507582
 11
0.611512
 20
-1.166908
 21
-1.166908
  0
LINE
  8
CONSTRUCTION
 10
0.611512
 11
0.559547
 20
-1.166908
 21
-1.03848
  0
LINE
  8
CONSTRUCTION
 10
0.559547
 11
0.966478
 20
-1.03848
 21
-1.03848
  0
LINE
  8
CONSTRUCTION
 10
0.966478
 11
0.914513
 20
-1.03848
 21
-1.166908
  0
LINE
  8
CONSTRUCTION
 10
0.914513
 11
1.018442
 20
-1.166908
 21
-1.166908
  0
LINE
  8
CONSTRUCTION
 10
1.018442
 11
0.966478
 20
-1.166908
 21
-1.03848
  0
LINE
  8
CONSTRUCTION
 10
0.966478
 11
1.373408
 20
-1.03848
 21
-1.03848
  0
LINE
  8
CONSTRUCTION
 10
1.373408
 11
1.321443
 20
-1.03848
 21
-1.166908
  0
LINE
  8
CONSTRUCTION
 10
1.321443
 11
1.425373
 20
-1.166908
 21
-1.166908
  0
LINE
  8
CONSTRUCTION
 10
1.425373
 11
1.373408
 20
-1.166908
 21
-1.03848
  0
LINE
  8
CONSTRUCTION
 10
1.373408
 11
1.780281
 20
-1.03848
 21
-1.038482
  0
LINE
  8
CONSTRUCTION
 10
1.780281
 11
1.728316
 20
-1.038482
 21
-1.166909
  0
LINE
  8
CONSTRUCTION
 10
1.728316
 11
1.832246
 20
-1.166909
 21
-1.166909
  0
LINE
  8
CONSTRUCTION
 10
1.832246
 11
1.780281
 20
-1.166909
 21
-1.038482
  0
LINE
  8
CONSTRUCTION
 10
0.0
 11
4.0
 20
-1.561751
 21
-1.561751
  0
TEXT
  8
TEXT
 10
0.10065
 20
-1.405784
 30
0.0
 40
0.224
 50
0.0
  1
DOVETAIL DESIGNS
  0
TEXT
  8
TEXT
 10
2.276036
 20
-1.551751
 30
0.0
 40
0.099
 50
0.0
  1
& MILLWORK INC.
  0
TEXT
  8
TEXT
 10
1.092458
 20
-1.640461
 30
0.0
 40
0.07
 50
0.0
  1
Established 1979
  0
TEXT
  8
TEXT
 10
0.1
 20
-1.8
 30
0.0
 40
0.1
 50
0.0
  1
Phone: (406) 248-5010    Website: www.dovetailmt.com
  0
TEXT
  8
TEXT
 10
0.0
 20
-0.65
 30
0.0
 40
0.1
 50
0.0
  1
(3/4"x1-3/4")
  0
TEXT
  8
TEXT
 10
0.0
 20
-0.5
 30
0.0
 40
0.1
 50
0.0
  1
1-3/16"x1-5/16"
  0
TEXT
  8
TEXT
 10
0.0
 20
-0.25
 30
0.0
 40
0.15625
 50
0.0
  1
CN46
  0
ENDSEC
  0
EOF
