  0
SECTION
  2
ENTITIES
  0
ARC
  8
APS_GEOMETRY
 10
0.79956
 20
-0.032457
 40
0.601562
 50
173.181512
 51
176.907118
  0
LINE
  8
APS_GEOMETRY
 10
0.198874
 11
0.0
 20
0.0
 21
0.0
  0
LINE
  8
APS_GEOMETRY
 10
0.0
 11
0.0
 20
0.0
 21
0.751301
  0
LINE
  8
APS_GEOMETRY
 10
0.0
 11
1.29268
 20
0.751301
 21
2.043981
  0
LINE
  8
APS_GEOMETRY
 10
1.29268
 11
2.021883
 20
2.043981
 21
2.043981
  0
LINE
  8
APS_GEOMETRY
 10
2.021883
 11
2.021883
 20
2.043981
 21
1.82301
  0
ARC
  8
APS_GEOMETRY
 10
2.087284
 20
1.06974
 40
0.756104
 50
94.962097
 51
102.449688
  0
ARC
  8
APS_GEOMETRY
 10
2.103776
 20
0.995034
 40
0.832609
 50
102.449632
 51
109.028484
  0
ARC
  8
APS_GEOMETRY
 10
2.109167
 20
0.979418
 40
0.849129
 50
109.028844
 51
115.477394
  0
ARC
  8
APS_GEOMETRY
 10
2.088119
 20
1.023587
 40
0.800201
 50
115.47727
 51
122.202622
  0
ARC
  8
APS_GEOMETRY
 10
2.076136
 20
1.042613
 40
0.777716
 50
122.202617
 51
129.136404
  0
ARC
  8
APS_GEOMETRY
 10
2.04047
 20
1.086441
 40
0.72121
 50
129.136244
 51
136.355274
  0
ARC
  8
APS_GEOMETRY
 10
2.022707
 20
1.103393
 40
0.696656
 50
136.355902
 51
143.439717
  0
ARC
  8
APS_GEOMETRY
 10
2.300234
 20
0.897578
 40
1.042172
 50
143.439579
 51
148.621381
  0
ARC
  8
APS_GEOMETRY
 10
2.546319
 20
0.747485
 40
1.330418
 50
148.621074
 51
152.123394
  0
ARC
  8
APS_GEOMETRY
 10
4.153926
 20
-0.102852
 40
3.149064
 50
152.123505
 51
153.969554
  0
LINE
  8
APS_GEOMETRY
 10
1.3243
 11
1.242721
 20
1.279111
 21
1.112091
  0
ARC
  8
APS_GEOMETRY
 10
-0.554082
 20
2.030211
 40
2.017782
 50
330.094378
 51
332.934125
  0
ARC
  8
APS_GEOMETRY
 10
0.221701
 20
1.584011
 40
1.122833
 50
325.6291
 51
330.094566
  0
ARC
  8
APS_GEOMETRY
 10
0.343515
 20
1.500686
 40
0.975247
 50
319.867452
 51
325.629473
  0
ARC
  8
APS_GEOMETRY
 10
0.505566
 20
1.364081
 40
0.7633
 50
312.860306
 51
319.866771
  0
ARC
  8
APS_GEOMETRY
 10
0.546537
 20
1.319928
 40
0.703066
 50
304.596718
 51
312.860393
  0
ARC
  8
APS_GEOMETRY
 10
0.652817
 20
1.16584
 40
0.51588
 50
294.277761
 51
304.597198
  0
ARC
  8
APS_GEOMETRY
 10
0.695096
 20
1.072112
 40
0.413058
 50
280.801676
 51
294.2775
  0
ARC
  8
APS_GEOMETRY
 10
0.717234
 20
0.956082
 40
0.294935
 50
263.727404
 51
280.801501
  0
LINE
  8
APS_GEOMETRY
 10
0.68501
 11
0.68501
 20
0.662913
 21
0.464039
  0
LINE
  8
APS_GEOMETRY
 10
0.68501
 11
0.53033
 20
0.464039
 21
0.464039
  0
ARC
  8
APS_GEOMETRY
 10
0.275158
 20
0.455428
 40
0.255317
 50
340.086537
 51
1.932778
  0
ARC
  8
APS_GEOMETRY
 10
0.385201
 20
0.415566
 40
0.138277
 50
304.899013
 51
340.085894
  0
ARC
  8
APS_GEOMETRY
 10
0.351054
 20
0.464523
 40
0.197967
 50
297.082468
 51
304.897797
  0
ARC
  8
APS_GEOMETRY
 10
0.2473
 20
0.667432
 40
0.425863
 50
292.524396
 51
297.082246
  0
LINE
  8
APS_GEOMETRY
 10
0.410439
 11
0.351568
 20
0.274055
 21
0.251072
  0
ARC
  8
APS_GEOMETRY
 10
0.487866
 20
-0.089049
 40
0.366414
 50
111.837707
 51
122.350444
  0
ARC
  8
APS_GEOMETRY
 10
0.371479
 20
0.094695
 40
0.148911
 50
122.349417
 51
143.025707
  0
ARC
  8
APS_GEOMETRY
 10
0.401225
 20
0.072308
 40
0.18614
 50
143.027566
 51
151.924491
  0
ARC
  8
APS_GEOMETRY
 10
0.462629
 20
0.039548
 40
0.255736
 50
151.923131
 51
159.113078
  0
ARC
  8
APS_GEOMETRY
 10
0.507751
 20
0.022328
 40
0.304033
 50
159.112843
 51
164.835795
  0
ARC
  8
APS_GEOMETRY
 10
0.612801
 20
-0.006133
 40
0.41287
 50
164.837193
 51
169.444084
  0
ARC
  8
APS_GEOMETRY
 10
0.672053
 20
-0.017186
 40
0.473144
 50
169.442714
 51
173.184559
  0
LINE
  8
CONSTRUCTION
 10
0.152615
 11
0.10065
 20
-1.038482
 21
-1.166909
  0
LINE
  8
CONSTRUCTION
 10
0.10065
 11
0.20458
 20
-1.166909
 21
-1.166909
  0
LINE
  8
CONSTRUCTION
 10
0.20458
 11
0.152615
 20
-1.166909
 21
-1.038482
  0
LINE
  8
CONSTRUCTION
 10
0.152615
 11
0.559547
 20
-1.038482
 21
-1.03848
  0
LINE
  8
CONSTRUCTION
 10
0.559547
 11
0.507582
 20
-1.03848
 21
-1.166908
  0
LINE
  8
CONSTRUCTION
 10
0.507582
 11
0.611512
 20
-1.166908
 21
-1.166908
  0
LINE
  8
CONSTRUCTION
 10
0.611512
 11
0.559547
 20
-1.166908
 21
-1.03848
  0
LINE
  8
CONSTRUCTION
 10
0.559547
 11
0.966478
 20
-1.03848
 21
-1.03848
  0
LINE
  8
CONSTRUCTION
 10
0.966478
 11
0.914513
 20
-1.03848
 21
-1.166908
  0
LINE
  8
CONSTRUCTION
 10
0.914513
 11
1.018442
 20
-1.166908
 21
-1.166908
  0
LINE
  8
CONSTRUCTION
 10
1.018442
 11
0.966478
 20
-1.166908
 21
-1.03848
  0
LINE
  8
CONSTRUCTION
 10
0.966478
 11
1.373408
 20
-1.03848
 21
-1.03848
  0
LINE
  8
CONSTRUCTION
 10
1.373408
 11
1.321443
 20
-1.03848
 21
-1.166908
  0
LINE
  8
CONSTRUCTION
 10
1.321443
 11
1.425373
 20
-1.166908
 21
-1.166908
  0
LINE
  8
CONSTRUCTION
 10
1.425373
 11
1.373408
 20
-1.166908
 21
-1.03848
  0
LINE
  8
CONSTRUCTION
 10
1.373408
 11
1.780281
 20
-1.03848
 21
-1.038482
  0
LINE
  8
CONSTRUCTION
 10
1.780281
 11
1.728316
 20
-1.038482
 21
-1.166909
  0
LINE
  8
CONSTRUCTION
 10
1.728316
 11
1.832246
 20
-1.166909
 21
-1.166909
  0
LINE
  8
CONSTRUCTION
 10
1.832246
 11
1.780281
 20
-1.166909
 21
-1.038482
  0
LINE
  8
CONSTRUCTION
 10
0.0
 11
4.0
 20
-1.561751
 21
-1.561751
  0
TEXT
  8
TEXT
 10
0.10065
 20
-1.405784
 30
0.0
 40
0.224
 50
0.0
  1
DOVETAIL DESIGNS
  0
TEXT
  8
TEXT
 10
2.276036
 20
-1.551751
 30
0.0
 40
0.099
 50
0.0
  1
& MILLWORK INC.
  0
TEXT
  8
TEXT
 10
1.092458
 20
-1.640461
 30
0.0
 40
0.07
 50
0.0
  1
Established 1979
  0
TEXT
  8
TEXT
 10
0.1
 20
-1.8
 30
0.0
 40
0.1
 50
0.0
  1
Phone: (406) 248-5010    Website: www.dovetailmt.com
  0
TEXT
  8
TEXT
 10
0.0
 20
-0.25
 30
0.0
 40
0.15625
 50
0.0
  1
CN34
  0
TEXT
  8
TEXT
 10
0.0
 20
-0.5
 30
0.0
 40
0.1
 50
0.0
  1
2"x2-1/16"
  0
TEXT
  8
TEXT
 10
0.0
 20
-0.65
 30
0.0
 40
0.1
 50
0.0
  1
(11/16"x2-7/8")
  0
ENDSEC
  0
EOF
