  0
SECTION
  2
ENTITIES
  0
ARC
  8
APS_GEOMETRY
 10
0.390385
 20
0.020604
 40
0.214599
 50
99.882673
 51
185.509549
  0
LINE
  8
APS_GEOMETRY
 10
0.176777
 11
0.0
 20
0.0
 21
0.0
  0
LINE
  8
APS_GEOMETRY
 10
0.0
 11
0.0
 20
0.0
 21
0.596621
  0
LINE
  8
APS_GEOMETRY
 10
0.0
 11
2.088175
 20
0.596621
 21
2.684796
  0
LINE
  8
APS_GEOMETRY
 10
2.088175
 11
2.88367
 20
2.684796
 21
2.684796
  0
LINE
  8
APS_GEOMETRY
 10
2.88367
 11
2.88367
 20
2.684796
 21
2.441728
  0
ARC
  8
APS_GEOMETRY
 10
2.879379
 20
1.314532
 40
1.127204
 50
89.781904
 51
97.201361
  0
ARC
  8
APS_GEOMETRY
 10
2.881548
 20
1.297376
 40
1.144497
 50
97.201391
 51
104.250366
  0
ARC
  8
APS_GEOMETRY
 10
2.868948
 20
1.347029
 40
1.09327
 50
104.25092
 51
111.743776
  0
ARC
  8
APS_GEOMETRY
 10
2.803627
 20
1.510785
 40
0.916967
 50
111.743207
 51
120.17278
  0
ARC
  8
APS_GEOMETRY
 10
2.75784
 20
1.589557
 40
0.825854
 50
120.173381
 51
129.451609
  0
ARC
  8
APS_GEOMETRY
 10
2.832846
 20
1.4984
 40
0.943903
 50
129.451177
 51
137.60107
  0
ARC
  8
APS_GEOMETRY
 10
2.980635
 20
1.363451
 40
1.144035
 50
137.600923
 51
143.935593
  0
ARC
  8
APS_GEOMETRY
 10
3.544029
 20
0.953158
 40
1.840995
 50
143.935716
 51
148.447565
  0
ARC
  8
APS_GEOMETRY
 10
4.07645
 20
0.626249
 40
2.465768
 50
148.448156
 51
151.24817
  0
ARC
  8
APS_GEOMETRY
 10
8.600198
 20
-1.855817
 40
7.625705
 50
151.247744
 51
152.452741
  0
ARC
  8
APS_GEOMETRY
 10
-26.832529
 20
16.626565
 40
32.337736
 50
332.140983
 51
332.452569
  0
ARC
  8
APS_GEOMETRY
 10
-1.232833
 20
3.09566
 40
3.382083
 50
330.313444
 51
332.140959
  0
ARC
  8
APS_GEOMETRY
 10
-0.472739
 20
2.662345
 40
2.507152
 50
326.892164
 51
330.313476
  0
ARC
  8
APS_GEOMETRY
 10
0.418879
 20
2.08092
 40
1.442709
 50
321.778514
 51
326.892592
  0
ARC
  8
APS_GEOMETRY
 10
0.632989
 20
1.912314
 40
1.170182
 50
314.910911
 51
321.778063
  0
ARC
  8
APS_GEOMETRY
 10
0.813767
 20
1.730978
 40
0.914129
 50
306.519149
 51
314.91069
  0
ARC
  8
APS_GEOMETRY
 10
0.814605
 20
1.729827
 40
0.912705
 50
297.808489
 51
306.519841
  0
ARC
  8
APS_GEOMETRY
 10
0.801711
 20
1.754285
 40
0.940353
 50
289.246846
 51
297.808189
  0
ARC
  8
APS_GEOMETRY
 10
0.812004
 20
1.724824
 40
0.909146
 50
280.294486
 51
289.246494
  0
ARC
  8
APS_GEOMETRY
 10
0.832947
 20
1.609487
 40
0.791923
 50
270.487801
 51
280.294868
  0
LINE
  8
APS_GEOMETRY
 10
0.839689
 11
0.839689
 20
0.817593
 21
0.464039
  0
LINE
  8
APS_GEOMETRY
 10
0.839689
 11
0.53033
 20
0.464039
 21
0.464039
  0
ARC
  8
APS_GEOMETRY
 10
0.316721
 20
0.443434
 40
0.2146
 50
279.882566
 51
5.509709
  0
LINE
  8
CONSTRUCTION
 10
0.152615
 11
0.10065
 20
-1.038482
 21
-1.166909
  0
LINE
  8
CONSTRUCTION
 10
0.10065
 11
0.20458
 20
-1.166909
 21
-1.166909
  0
LINE
  8
CONSTRUCTION
 10
0.20458
 11
0.152615
 20
-1.166909
 21
-1.038482
  0
LINE
  8
CONSTRUCTION
 10
0.152615
 11
0.559547
 20
-1.038482
 21
-1.03848
  0
LINE
  8
CONSTRUCTION
 10
0.559547
 11
0.507582
 20
-1.03848
 21
-1.166908
  0
LINE
  8
CONSTRUCTION
 10
0.507582
 11
0.611512
 20
-1.166908
 21
-1.166908
  0
LINE
  8
CONSTRUCTION
 10
0.611512
 11
0.559547
 20
-1.166908
 21
-1.03848
  0
LINE
  8
CONSTRUCTION
 10
0.559547
 11
0.966478
 20
-1.03848
 21
-1.03848
  0
LINE
  8
CONSTRUCTION
 10
0.966478
 11
0.914513
 20
-1.03848
 21
-1.166908
  0
LINE
  8
CONSTRUCTION
 10
0.914513
 11
1.018442
 20
-1.166908
 21
-1.166908
  0
LINE
  8
CONSTRUCTION
 10
1.018442
 11
0.966478
 20
-1.166908
 21
-1.03848
  0
LINE
  8
CONSTRUCTION
 10
0.966478
 11
1.373408
 20
-1.03848
 21
-1.03848
  0
LINE
  8
CONSTRUCTION
 10
1.373408
 11
1.321443
 20
-1.03848
 21
-1.166908
  0
LINE
  8
CONSTRUCTION
 10
1.321443
 11
1.425373
 20
-1.166908
 21
-1.166908
  0
LINE
  8
CONSTRUCTION
 10
1.425373
 11
1.373408
 20
-1.166908
 21
-1.03848
  0
LINE
  8
CONSTRUCTION
 10
1.373408
 11
1.780281
 20
-1.03848
 21
-1.038482
  0
LINE
  8
CONSTRUCTION
 10
1.780281
 11
1.728316
 20
-1.038482
 21
-1.166909
  0
LINE
  8
CONSTRUCTION
 10
1.728316
 11
1.832246
 20
-1.166909
 21
-1.166909
  0
LINE
  8
CONSTRUCTION
 10
1.832246
 11
1.780281
 20
-1.166909
 21
-1.038482
  0
LINE
  8
CONSTRUCTION
 10
0.0
 11
4.0
 20
-1.561751
 21
-1.561751
  0
TEXT
  8
TEXT
 10
0.10065
 20
-1.405784
 30
0.0
 40
0.224
 50
0.0
  1
DOVETAIL DESIGNS
  0
TEXT
  8
TEXT
 10
2.276036
 20
-1.551751
 30
0.0
 40
0.099
 50
0.0
  1
& MILLWORK INC.
  0
TEXT
  8
TEXT
 10
1.092458
 20
-1.640461
 30
0.0
 40
0.07
 50
0.0
  1
Established 1979
  0
TEXT
  8
TEXT
 10
0.1
 20
-1.8
 30
0.0
 40
0.1
 50
0.0
  1
Phone: (406) 248-5010    Website: www.dovetailmt.com
  0
TEXT
  8
TEXT
 10
0.0
 20
-0.65
 30
0.0
 40
0.1
 50
0.0
  1
(3/4"x3-15/16")
  0
TEXT
  8
TEXT
 10
0.0
 20
-0.5
 30
0.0
 40
0.1
 50
0.0
  1
2-7/8"x2-11/16"
  0
TEXT
  8
TEXT
 10
0.0
 20
-0.25
 30
0.0
 40
0.15625
 50
0.0
  1
CN33
  0
ENDSEC
  0
EOF
