  0
SECTION
  2
ENTITIES
  0
ARC
  8
APS_GEOMETRY
 10
2.031856
 20
2.430347
 40
0.062501
 50
308.339771
 51
0.000833
  0
LINE
  8
APS_GEOMETRY
 10
2.094357
 11
2.094357
 20
2.430348
 21
3.035121
  0
LINE
  8
APS_GEOMETRY
 10
2.094357
 11
1.69234
 20
3.035121
 21
3.035121
  0
LINE
  8
APS_GEOMETRY
 10
1.69234
 11
0.0
 20
3.035121
 21
0.618209
  0
LINE
  8
APS_GEOMETRY
 10
0.0
 11
0.0
 20
0.618209
 21
0.0
  0
LINE
  8
APS_GEOMETRY
 10
0.0
 11
0.278499
 20
0.0
 21
0.0
  0
ARC
  8
APS_GEOMETRY
 10
0.278499
 20
0.0625
 40
0.0625
 50
270.0
 51
1.28459
  0
ARC
  8
APS_GEOMETRY
 10
0.847163
 20
0.075251
 40
0.506307
 50
101.634875
 51
181.284504
  0
ARC
  8
APS_GEOMETRY
 10
0.738752
 20
0.601764
 40
0.031251
 50
281.634075
 51
348.43442
  0
LINE
  8
APS_GEOMETRY
 10
0.769368
 11
0.825833
 20
0.595498
 21
0.871415
  0
ARC
  8
APS_GEOMETRY
 10
0.578502
 20
1.489555
 40
0.665785
 50
291.807404
 51
300.23871
  0
ARC
  8
APS_GEOMETRY
 10
0.519397
 20
1.59095
 40
0.783149
 50
300.238698
 51
307.749382
  0
ARC
  8
APS_GEOMETRY
 10
0.474961
 20
1.648346
 40
0.855736
 50
307.749215
 51
314.441796
  0
ARC
  8
APS_GEOMETRY
 10
0.399769
 20
1.725012
 40
0.963121
 50
314.442039
 51
320.606876
  0
ARC
  8
APS_GEOMETRY
 10
0.332458
 20
1.780281
 40
1.050215
 50
320.607157
 51
326.008314
  0
ARC
  8
APS_GEOMETRY
 10
0.10606
 20
1.93295
 40
1.323279
 50
326.00798
 51
330.548931
  0
ARC
  8
APS_GEOMETRY
 10
-0.051939
 20
2.02215
 40
1.504719
 50
330.54939
 51
334.135275
  0
ARC
  8
APS_GEOMETRY
 10
-1.252867
 20
2.604405
 40
2.839353
 50
334.134737
 51
336.342739
  0
LINE
  8
APS_GEOMETRY
 10
1.347873
 11
1.426769
 20
1.465073
 21
1.65213
  0
ARC
  8
APS_GEOMETRY
 10
5.438447
 20
-0.041416
 40
4.354499
 50
155.653539
 51
157.11277
  0
ARC
  8
APS_GEOMETRY
 10
3.156923
 20
0.990952
 40
1.850275
 50
152.899342
 51
155.653293
  0
ARC
  8
APS_GEOMETRY
 10
2.790351
 20
1.178553
 40
1.438487
 50
148.802939
 51
152.899767
  0
ARC
  8
APS_GEOMETRY
 10
2.385859
 20
1.423503
 40
0.965608
 50
143.302623
 51
148.803416
  0
ARC
  8
APS_GEOMETRY
 10
2.290666
 20
1.494444
 40
0.846889
 50
136.800483
 51
143.302256
  0
ARC
  8
APS_GEOMETRY
 10
2.439346
 20
1.354812
 40
1.050857
 50
131.354194
 51
136.799876
  0
ARC
  8
APS_GEOMETRY
 10
2.652054
 20
1.113181
 40
1.372773
 50
127.527396
 51
131.35499
  0
ARC
  8
APS_GEOMETRY
 10
3.454774
 20
0.06806
 40
2.690589
 50
125.19602
 51
127.526998
  0
LINE
  8
APS_GEOMETRY
 10
1.903985
 11
2.070627
 20
2.266769
 21
2.381325
  0
LINE
  8
CONSTRUCTION
 10
0.152615
 11
0.10065
 20
-1.038482
 21
-1.166909
  0
LINE
  8
CONSTRUCTION
 10
0.10065
 11
0.20458
 20
-1.166909
 21
-1.166909
  0
LINE
  8
CONSTRUCTION
 10
0.20458
 11
0.152615
 20
-1.166909
 21
-1.038482
  0
LINE
  8
CONSTRUCTION
 10
0.152615
 11
0.559547
 20
-1.038482
 21
-1.03848
  0
LINE
  8
CONSTRUCTION
 10
0.559547
 11
0.507582
 20
-1.03848
 21
-1.166908
  0
LINE
  8
CONSTRUCTION
 10
0.507582
 11
0.611512
 20
-1.166908
 21
-1.166908
  0
LINE
  8
CONSTRUCTION
 10
0.611512
 11
0.559547
 20
-1.166908
 21
-1.03848
  0
LINE
  8
CONSTRUCTION
 10
0.559547
 11
0.966478
 20
-1.03848
 21
-1.03848
  0
LINE
  8
CONSTRUCTION
 10
0.966478
 11
0.914513
 20
-1.03848
 21
-1.166908
  0
LINE
  8
CONSTRUCTION
 10
0.914513
 11
1.018442
 20
-1.166908
 21
-1.166908
  0
LINE
  8
CONSTRUCTION
 10
1.018442
 11
0.966478
 20
-1.166908
 21
-1.03848
  0
LINE
  8
CONSTRUCTION
 10
0.966478
 11
1.373408
 20
-1.03848
 21
-1.03848
  0
LINE
  8
CONSTRUCTION
 10
1.373408
 11
1.321443
 20
-1.03848
 21
-1.166908
  0
LINE
  8
CONSTRUCTION
 10
1.321443
 11
1.425373
 20
-1.166908
 21
-1.166908
  0
LINE
  8
CONSTRUCTION
 10
1.425373
 11
1.373408
 20
-1.166908
 21
-1.03848
  0
LINE
  8
CONSTRUCTION
 10
1.373408
 11
1.780281
 20
-1.03848
 21
-1.038482
  0
LINE
  8
CONSTRUCTION
 10
1.780281
 11
1.728316
 20
-1.038482
 21
-1.166909
  0
LINE
  8
CONSTRUCTION
 10
1.728316
 11
1.832246
 20
-1.166909
 21
-1.166909
  0
LINE
  8
CONSTRUCTION
 10
1.832246
 11
1.780281
 20
-1.166909
 21
-1.038482
  0
LINE
  8
CONSTRUCTION
 10
0.0
 11
4.0
 20
-1.561751
 21
-1.561751
  0
TEXT
  8
TEXT
 10
0.10065
 20
-1.405784
 30
0.0
 40
0.224
 50
0.0
  1
DOVETAIL DESIGNS
  0
TEXT
  8
TEXT
 10
2.276036
 20
-1.551751
 30
0.0
 40
0.099
 50
0.0
  1
& MILLWORK INC.
  0
TEXT
  8
TEXT
 10
1.092458
 20
-1.640461
 30
0.0
 40
0.07
 50
0.0
  1
Established 1979
  0
TEXT
  8
TEXT
 10
0.1
 20
-1.8
 30
0.0
 40
0.1
 50
0.0
  1
Phone: (406) 248-5010    Website: www.dovetailmt.com
  0
TEXT
  8
TEXT
 10
0.0
 20
-0.25
 30
0.0
 40
0.15625
 50
0.0
  1
CN32
  0
TEXT
  8
TEXT
 10
0.0
 20
-0.5
 30
0.0
 40
0.1
 50
0.0
  1
2-1/8"x3-1/16"
  0
TEXT
  8
TEXT
 10
0.0
 20
-0.65
 30
0.0
 40
0.1
 50
0.0
  1
(11/16"x3-11/16")
  0
ENDSEC
  0
EOF
