  0
SECTION
  2
ENTITIES
  0
ARC
  8
APS_GEOMETRY
 10
0.286271
 20
0.62766
 40
0.222445
 50
303.7606
 51
332.88913
  0
ARC
  8
APS_GEOMETRY
 10
0.292503
 20
0.624469
 40
0.215443
 50
332.889237
 51
20.864104
  0
ARC
  8
APS_GEOMETRY
 10
0.362514
 20
0.98952
 40
0.316812
 50
294.485237
 51
333.790721
  0
ARC
  8
APS_GEOMETRY
 10
0.560846
 20
0.891888
 40
0.095752
 50
333.790919
 51
46.26323
  0
LINE
  8
APS_GEOMETRY
 10
0.627044
 11
0.716877
 20
0.961071
 21
1.00036
  0
LINE
  8
APS_GEOMETRY
 10
0.716877
 11
0.801989
 20
1.00036
 21
1.049509
  0
LINE
  8
APS_GEOMETRY
 10
0.801989
 11
0.882228
 20
1.049509
 21
1.107482
  0
LINE
  8
APS_GEOMETRY
 10
0.882228
 11
0.957442
 20
1.107482
 21
1.173242
  0
LINE
  8
APS_GEOMETRY
 10
0.957442
 11
1.02748
 20
1.173242
 21
1.24575
  0
LINE
  8
APS_GEOMETRY
 10
1.02748
 11
1.092189
 20
1.24575
 21
1.323971
  0
LINE
  8
APS_GEOMETRY
 10
1.092189
 11
1.205018
 20
1.323971
 21
1.493402
  0
LINE
  8
APS_GEOMETRY
 10
1.205018
 11
1.26242
 20
1.493402
 21
1.601803
  0
LINE
  8
APS_GEOMETRY
 10
1.26242
 11
1.312521
 20
1.601803
 21
1.713396
  0
LINE
  8
APS_GEOMETRY
 10
1.312521
 11
1.395544
 20
1.713396
 21
1.943668
  0
LINE
  8
APS_GEOMETRY
 10
1.395544
 11
1.525976
 20
1.943668
 21
2.415096
  0
LINE
  8
APS_GEOMETRY
 10
1.525976
 11
1.592295
 20
2.415096
 21
2.646277
  0
LINE
  8
APS_GEOMETRY
 10
1.592295
 11
1.671957
 20
2.646277
 21
2.867785
  0
LINE
  8
APS_GEOMETRY
 10
1.671957
 11
1.719746
 20
2.867785
 21
2.973353
  0
LINE
  8
APS_GEOMETRY
 10
1.719746
 11
1.774418
 20
2.973353
 21
3.074632
  0
LINE
  8
APS_GEOMETRY
 10
1.774418
 11
1.837153
 20
3.074632
 21
3.171
  0
LINE
  8
APS_GEOMETRY
 10
1.837153
 11
1.909133
 20
3.171
 21
3.261832
  0
LINE
  8
APS_GEOMETRY
 10
1.909133
 11
2.044252
 20
3.261832
 21
3.397077
  0
LINE
  8
APS_GEOMETRY
 10
2.044252
 11
2.189556
 20
3.397077
 21
3.524563
  0
ARC
  8
APS_GEOMETRY
 10
2.107282
 20
3.618669
 40
0.125
 50
311.162137
 51
2.700589
  0
LINE
  8
APS_GEOMETRY
 10
2.232143
 11
2.218426
 20
3.624559
 21
3.915343
  0
LINE
  8
APS_GEOMETRY
 10
2.218426
 11
1.755343
 20
3.915343
 21
3.915343
  0
LINE
  8
APS_GEOMETRY
 10
1.755343
 11
0.0
 20
3.915343
 21
0.875
  0
LINE
  8
APS_GEOMETRY
 10
0.0
 11
0.0
 20
0.875
 21
0.0
  0
LINE
  8
APS_GEOMETRY
 10
0.0
 11
0.164323
 20
0.0
 21
0.0
  0
ARC
  8
APS_GEOMETRY
 10
0.164323
 20
0.121635
 40
0.121635
 50
270.0
 51
5.051226
  0
ARC
  8
APS_GEOMETRY
 10
0.679243
 20
0.167149
 40
0.395293
 50
150.000167
 51
185.051244
  0
ARC
  8
APS_GEOMETRY
 10
0.540585
 20
0.247199
 40
0.235186
 50
123.759788
 51
149.999343
  0
LINE
  8
CONSTRUCTION
 10
0.152615
 11
0.10065
 20
-1.038482
 21
-1.166909
  0
LINE
  8
CONSTRUCTION
 10
0.10065
 11
0.20458
 20
-1.166909
 21
-1.166909
  0
LINE
  8
CONSTRUCTION
 10
0.20458
 11
0.152615
 20
-1.166909
 21
-1.038482
  0
LINE
  8
CONSTRUCTION
 10
0.152615
 11
0.559547
 20
-1.038482
 21
-1.03848
  0
LINE
  8
CONSTRUCTION
 10
0.559547
 11
0.507582
 20
-1.03848
 21
-1.166908
  0
LINE
  8
CONSTRUCTION
 10
0.507582
 11
0.611512
 20
-1.166908
 21
-1.166908
  0
LINE
  8
CONSTRUCTION
 10
0.611512
 11
0.559547
 20
-1.166908
 21
-1.03848
  0
LINE
  8
CONSTRUCTION
 10
0.559547
 11
0.966478
 20
-1.03848
 21
-1.03848
  0
LINE
  8
CONSTRUCTION
 10
0.966478
 11
0.914513
 20
-1.03848
 21
-1.166908
  0
LINE
  8
CONSTRUCTION
 10
0.914513
 11
1.018442
 20
-1.166908
 21
-1.166908
  0
LINE
  8
CONSTRUCTION
 10
1.018442
 11
0.966478
 20
-1.166908
 21
-1.03848
  0
LINE
  8
CONSTRUCTION
 10
0.966478
 11
1.373408
 20
-1.03848
 21
-1.03848
  0
LINE
  8
CONSTRUCTION
 10
1.373408
 11
1.321443
 20
-1.03848
 21
-1.166908
  0
LINE
  8
CONSTRUCTION
 10
1.321443
 11
1.425373
 20
-1.166908
 21
-1.166908
  0
LINE
  8
CONSTRUCTION
 10
1.425373
 11
1.373408
 20
-1.166908
 21
-1.03848
  0
LINE
  8
CONSTRUCTION
 10
1.373408
 11
1.780281
 20
-1.03848
 21
-1.038482
  0
LINE
  8
CONSTRUCTION
 10
1.780281
 11
1.728316
 20
-1.038482
 21
-1.166909
  0
LINE
  8
CONSTRUCTION
 10
1.728316
 11
1.832246
 20
-1.166909
 21
-1.166909
  0
LINE
  8
CONSTRUCTION
 10
1.832246
 11
1.780281
 20
-1.166909
 21
-1.038482
  0
LINE
  8
CONSTRUCTION
 10
0.0
 11
4.0
 20
-1.561751
 21
-1.561751
  0
TEXT
  8
TEXT
 10
0.10065
 20
-1.405784
 30
0.0
 40
0.224
 50
0.0
  1
DOVETAIL DESIGNS
  0
TEXT
  8
TEXT
 10
2.276036
 20
-1.551751
 30
0.0
 40
0.099
 50
0.0
  1
& MILLWORK INC.
  0
TEXT
  8
TEXT
 10
1.092458
 20
-1.640461
 30
0.0
 40
0.07
 50
0.0
  1
Established 1979
  0
TEXT
  8
TEXT
 10
0.1
 20
-1.8
 30
0.0
 40
0.1
 50
0.0
  1
Phone: (406) 248-5010    Website: www.dovetailmt.com
  0
TEXT
  8
TEXT
 10
0.0
 20
-0.65
 30
0.0
 40
0.1
 50
0.0
  1
(3/4"x4-1/2")
  0
TEXT
  8
TEXT
 10
0.0
 20
-0.5
 30
0.0
 40
0.1
 50
0.0
  1
2-1/4"x3-15/16"
  0
TEXT
  8
TEXT
 10
0.0
 20
-0.25
 30
0.0
 40
0.15625
 50
0.0
  1
CN31
  0
ENDSEC
  0
EOF
