  0
SECTION
  2
ENTITIES
  0
ARC
  8
APS_GEOMETRY
 10
1.922428
 20
-0.07652
 40
1.344913
 50
94.369172
 51
176.738363
  0
LINE
  8
APS_GEOMETRY
 10
0.579694
 11
0.0
 20
0.0
 21
0.0
  0
LINE
  8
APS_GEOMETRY
 10
0.0
 11
0.0
 20
0.0
 21
1.028127
  0
LINE
  8
APS_GEOMETRY
 10
0.0
 11
4.552436
 20
1.028127
 21
4.985499
  0
LINE
  8
APS_GEOMETRY
 10
4.552436
 11
5.189703
 20
4.985499
 21
4.985499
  0
LINE
  8
APS_GEOMETRY
 10
5.189703
 11
5.189703
 20
4.985499
 21
4.275605
  0
ARC
  8
APS_GEOMETRY
 10
5.189703
 20
2.592673
 40
1.682932
 50
90.0
 51
97.679854
  0
ARC
  8
APS_GEOMETRY
 10
5.209658
 20
2.444704
 40
1.83224
 50
97.679903
 51
105.020613
  0
ARC
  8
APS_GEOMETRY
 10
5.209303
 20
2.446009
 40
1.830888
 50
105.020457
 51
112.411119
  0
ARC
  8
APS_GEOMETRY
 10
5.15616
 20
2.574895
 40
1.691476
 50
112.411417
 51
120.221744
  0
ARC
  8
APS_GEOMETRY
 10
5.090386
 20
2.687788
 40
1.56082
 50
120.221398
 51
128.808674
  0
ARC
  8
APS_GEOMETRY
 10
4.946627
 20
2.866543
 40
1.331429
 50
128.808949
 51
138.378396
  0
ARC
  8
APS_GEOMETRY
 10
5.05134
 20
2.773491
 40
1.471513
 50
138.378035
 51
146.608593
  0
ARC
  8
APS_GEOMETRY
 10
5.828677
 20
2.261107
 40
2.402529
 50
146.608746
 51
152.354133
  0
ARC
  8
APS_GEOMETRY
 10
6.596159
 20
1.859101
 40
3.268922
 50
152.354225
 51
155.694403
  0
ARC
  8
APS_GEOMETRY
 10
16.770614
 20
-2.735983
 40
14.432897
 50
155.694605
 51
156.774775
  0
ARC
  8
APS_GEOMETRY
 10
-9.082139
 20
8.358081
 40
13.699702
 50
335.641991
 51
336.774451
  0
ARC
  8
APS_GEOMETRY
 10
0.53846
 20
4.002474
 40
3.139056
 50
332.199326
 51
335.642129
  0
ARC
  8
APS_GEOMETRY
 10
1.29673
 20
3.60267
 40
2.281841
 50
326.246317
 51
332.199384
  0
ARC
  8
APS_GEOMETRY
 10
2.052537
 20
3.097594
 40
1.372806
 50
317.657009
 51
326.246003
  0
ARC
  8
APS_GEOMETRY
 10
2.193544
 20
2.969085
 40
1.182024
 50
307.139923
 51
317.657368
  0
ARC
  8
APS_GEOMETRY
 10
2.057582
 20
3.1486
 40
1.407216
 50
297.822538
 51
307.139869
  0
ARC
  8
APS_GEOMETRY
 10
1.953403
 20
3.346009
 40
1.630428
 50
289.896695
 51
297.822481
  0
ARC
  8
APS_GEOMETRY
 10
1.83946
 20
3.660808
 40
1.965214
 50
282.913714
 51
289.896908
  0
ARC
  8
APS_GEOMETRY
 10
1.816307
 20
3.761812
 40
2.068837
 50
276.429107
 51
282.913577
  0
ARC
  8
APS_GEOMETRY
 10
1.819974
 20
3.729337
 40
2.036156
 50
269.99987
 51
276.428897
  0
LINE
  8
APS_GEOMETRY
 10
1.819969
 11
1.819969
 20
1.693181
 21
1.264485
  0
LINE
  8
CONSTRUCTION
 10
0.152615
 11
0.10065
 20
-1.038482
 21
-1.166909
  0
LINE
  8
CONSTRUCTION
 10
0.10065
 11
0.20458
 20
-1.166909
 21
-1.166909
  0
LINE
  8
CONSTRUCTION
 10
0.20458
 11
0.152615
 20
-1.166909
 21
-1.038482
  0
LINE
  8
CONSTRUCTION
 10
0.152615
 11
0.559547
 20
-1.038482
 21
-1.03848
  0
LINE
  8
CONSTRUCTION
 10
0.559547
 11
0.507582
 20
-1.03848
 21
-1.166908
  0
LINE
  8
CONSTRUCTION
 10
0.507582
 11
0.611512
 20
-1.166908
 21
-1.166908
  0
LINE
  8
CONSTRUCTION
 10
0.611512
 11
0.559547
 20
-1.166908
 21
-1.03848
  0
LINE
  8
CONSTRUCTION
 10
0.559547
 11
0.966478
 20
-1.03848
 21
-1.03848
  0
LINE
  8
CONSTRUCTION
 10
0.966478
 11
0.914513
 20
-1.03848
 21
-1.166908
  0
LINE
  8
CONSTRUCTION
 10
0.914513
 11
1.018442
 20
-1.166908
 21
-1.166908
  0
LINE
  8
CONSTRUCTION
 10
1.018442
 11
0.966478
 20
-1.166908
 21
-1.03848
  0
LINE
  8
CONSTRUCTION
 10
0.966478
 11
1.373408
 20
-1.03848
 21
-1.03848
  0
LINE
  8
CONSTRUCTION
 10
1.373408
 11
1.321443
 20
-1.03848
 21
-1.166908
  0
LINE
  8
CONSTRUCTION
 10
1.321443
 11
1.425373
 20
-1.166908
 21
-1.166908
  0
LINE
  8
CONSTRUCTION
 10
1.425373
 11
1.373408
 20
-1.166908
 21
-1.03848
  0
LINE
  8
CONSTRUCTION
 10
1.373408
 11
1.780281
 20
-1.03848
 21
-1.038482
  0
LINE
  8
CONSTRUCTION
 10
1.780281
 11
1.728316
 20
-1.038482
 21
-1.166909
  0
LINE
  8
CONSTRUCTION
 10
1.728316
 11
1.832246
 20
-1.166909
 21
-1.166909
  0
LINE
  8
CONSTRUCTION
 10
1.832246
 11
1.780281
 20
-1.166909
 21
-1.038482
  0
LINE
  8
CONSTRUCTION
 10
0.0
 11
4.0
 20
-1.561751
 21
-1.561751
  0
TEXT
  8
TEXT
 10
0.10065
 20
-1.405784
 30
0.0
 40
0.224
 50
0.0
  1
DOVETAIL DESIGNS
  0
TEXT
  8
TEXT
 10
2.276036
 20
-1.551751
 30
0.0
 40
0.099
 50
0.0
  1
& MILLWORK INC.
  0
TEXT
  8
TEXT
 10
1.092458
 20
-1.640461
 30
0.0
 40
0.07
 50
0.0
  1
Established 1979
  0
TEXT
  8
TEXT
 10
0.1
 20
-1.8
 30
0.0
 40
0.1
 50
0.0
  1
Phone: (406) 248-5010    Website: www.dovetailmt.com
  0
TEXT
  8
TEXT
 10
0.0
 20
-0.25
 30
0.0
 40
0.15625
 50
0.0
  1
CN3
  0
TEXT
  8
TEXT
 10
0.0
 20
-0.65
 30
0.0
 40
0.1
 50
0.0
  1
(1-1/4"x7-1/4")
  0
TEXT
  8
TEXT
 10
0.0
 20
-0.5
 30
0.0
 40
0.1
 50
0.0
  1
5-3/16"x5"
  0
ENDSEC
  0
EOF
