  0
SECTION
  2
ENTITIES
  0
ARC
  8
APS_GEOMETRY
 10
0.860781
 20
0.209789
 40
0.421371
 50
90.0
 51
116.965415
  0
ARC
  8
APS_GEOMETRY
 10
0.912299
 20
0.108524
 40
0.534987
 50
116.9652
 51
140.848865
  0
ARC
  8
APS_GEOMETRY
 10
0.993029
 20
0.042803
 40
0.639086
 50
140.849305
 51
161.364381
  0
ARC
  8
APS_GEOMETRY
 10
1.119945
 20
-0.000001
 40
0.773026
 50
161.364074
 51
179.999937
  0
LINE
  8
APS_GEOMETRY
 10
0.346919
 11
0.0
 20
0.0
 21
0.0
  0
LINE
  8
APS_GEOMETRY
 10
0.0
 11
0.0
 20
0.0
 21
0.994501
  0
LINE
  8
APS_GEOMETRY
 10
0.0
 11
2.81368
 20
0.994501
 21
4.065094
  0
LINE
  8
APS_GEOMETRY
 10
2.81368
 11
3.481538
 20
4.065094
 21
4.100095
  0
LINE
  8
APS_GEOMETRY
 10
3.481538
 11
3.481538
 20
4.100095
 21
3.259902
  0
ARC
  8
APS_GEOMETRY
 10
3.597204
 20
1.695003
 40
1.569168
 50
94.227209
 51
109.657108
  0
ARC
  8
APS_GEOMETRY
 10
3.357964
 20
2.36475
 40
0.857974
 50
109.656981
 51
133.078407
  0
ARC
  8
APS_GEOMETRY
 10
3.332352
 20
2.39214
 40
0.820475
 50
133.078405
 51
155.359377
  0
ARC
  8
APS_GEOMETRY
 10
5.115383
 20
1.574274
 40
2.782133
 50
155.35937
 51
164.558294
  0
LINE
  8
APS_GEOMETRY
 10
2.433679
 11
2.328587
 20
2.315039
 21
1.927529
  0
ARC
  8
APS_GEOMETRY
 10
0.510131
 20
2.46836
 40
1.897177
 50
330.977321
 51
343.43688
  0
ARC
  8
APS_GEOMETRY
 10
1.588897
 20
1.86983
 40
0.663494
 50
304.685999
 51
330.977452
  0
ARC
  8
APS_GEOMETRY
 10
1.445581
 20
2.076918
 40
0.915337
 50
285.514977
 51
304.685801
  0
ARC
  8
APS_GEOMETRY
 10
0.849556
 20
4.223943
 40
3.143556
 50
277.306003
 51
285.51494
  0
LINE
  8
APS_GEOMETRY
 10
1.249317
 11
0.860781
 20
1.105909
 21
1.062563
  0
LINE
  8
APS_GEOMETRY
 10
0.860781
 11
0.860781
 20
1.062563
 21
0.63116
  0
LINE
  8
CONSTRUCTION
 10
0.152615
 11
0.10065
 20
-1.038482
 21
-1.166909
  0
LINE
  8
CONSTRUCTION
 10
0.10065
 11
0.20458
 20
-1.166909
 21
-1.166909
  0
LINE
  8
CONSTRUCTION
 10
0.20458
 11
0.152615
 20
-1.166909
 21
-1.038482
  0
LINE
  8
CONSTRUCTION
 10
0.152615
 11
0.559547
 20
-1.038482
 21
-1.03848
  0
LINE
  8
CONSTRUCTION
 10
0.559547
 11
0.507582
 20
-1.03848
 21
-1.166908
  0
LINE
  8
CONSTRUCTION
 10
0.507582
 11
0.611512
 20
-1.166908
 21
-1.166908
  0
LINE
  8
CONSTRUCTION
 10
0.611512
 11
0.559547
 20
-1.166908
 21
-1.03848
  0
LINE
  8
CONSTRUCTION
 10
0.559547
 11
0.966478
 20
-1.03848
 21
-1.03848
  0
LINE
  8
CONSTRUCTION
 10
0.966478
 11
0.914513
 20
-1.03848
 21
-1.166908
  0
LINE
  8
CONSTRUCTION
 10
0.914513
 11
1.018442
 20
-1.166908
 21
-1.166908
  0
LINE
  8
CONSTRUCTION
 10
1.018442
 11
0.966478
 20
-1.166908
 21
-1.03848
  0
LINE
  8
CONSTRUCTION
 10
0.966478
 11
1.373408
 20
-1.03848
 21
-1.03848
  0
LINE
  8
CONSTRUCTION
 10
1.373408
 11
1.321443
 20
-1.03848
 21
-1.166908
  0
LINE
  8
CONSTRUCTION
 10
1.321443
 11
1.425373
 20
-1.166908
 21
-1.166908
  0
LINE
  8
CONSTRUCTION
 10
1.425373
 11
1.373408
 20
-1.166908
 21
-1.03848
  0
LINE
  8
CONSTRUCTION
 10
1.373408
 11
1.780281
 20
-1.03848
 21
-1.038482
  0
LINE
  8
CONSTRUCTION
 10
1.780281
 11
1.728316
 20
-1.038482
 21
-1.166909
  0
LINE
  8
CONSTRUCTION
 10
1.728316
 11
1.832246
 20
-1.166909
 21
-1.166909
  0
LINE
  8
CONSTRUCTION
 10
1.832246
 11
1.780281
 20
-1.166909
 21
-1.038482
  0
LINE
  8
CONSTRUCTION
 10
0.0
 11
4.0
 20
-1.561751
 21
-1.561751
  0
TEXT
  8
TEXT
 10
0.10065
 20
-1.405784
 30
0.0
 40
0.224
 50
0.0
  1
DOVETAIL DESIGNS
  0
TEXT
  8
TEXT
 10
2.276036
 20
-1.551751
 30
0.0
 40
0.099
 50
0.0
  1
& MILLWORK INC.
  0
TEXT
  8
TEXT
 10
1.092458
 20
-1.640461
 30
0.0
 40
0.07
 50
0.0
  1
Established 1979
  0
TEXT
  8
TEXT
 10
0.1
 20
-1.8
 30
0.0
 40
0.1
 50
0.0
  1
Phone: (406) 248-5010    Website: www.dovetailmt.com
  0
TEXT
  8
TEXT
 10
0.0
 20
-0.25
 30
0.0
 40
0.15625
 50
0.0
  1
CN2
  0
TEXT
  8
TEXT
 10
0.0
 20
-0.5
 30
0.0
 40
0.1
 50
0.0
  1
3-1/2"x4-1/8"
  0
TEXT
  8
TEXT
 10
0.0
 20
-0.65
 30
0.0
 40
0.1
 50
0.0
  1
(1-1/4"x5-3/8")
  0
ENDSEC
  0
EOF
