  0
SECTION
  2
ENTITIES
  0
ARC
  8
APS_GEOMETRY
 10
2.09375
 20
2.53125
 40
0.15625
 50
270.0
 51
0.0
  0
LINE
  8
APS_GEOMETRY
 10
2.25
 11
2.25
 20
2.53125
 21
2.875
  0
LINE
  8
APS_GEOMETRY
 10
2.25
 11
1.641111
 20
2.875
 21
2.875
  0
LINE
  8
APS_GEOMETRY
 10
1.641111
 11
0.0
 20
2.875
 21
0.53125
  0
LINE
  8
APS_GEOMETRY
 10
0.0
 11
0.0
 20
0.53125
 21
0.0
  0
LINE
  8
APS_GEOMETRY
 10
0.0
 11
0.466329
 20
0.0
 21
0.0
  0
LINE
  8
APS_GEOMETRY
 10
0.466329
 11
0.609053
 20
0.0
 21
0.012487
  0
ARC
  8
APS_GEOMETRY
 10
0.595435
 20
0.168142
 40
0.15625
 50
274.999982
 51
4.999838
  0
LINE
  8
APS_GEOMETRY
 10
0.75109
 11
0.729301
 20
0.18176
 21
0.430809
  0
LINE
  8
APS_GEOMETRY
 10
0.729301
 11
0.859851
 20
0.430809
 21
0.442231
  0
ARC
  8
APS_GEOMETRY
 10
0.848956
 20
0.566755
 40
0.125
 50
275.000256
 51
4.999867
  0
LINE
  8
APS_GEOMETRY
 10
0.97348
 11
0.95451
 20
0.577649
 21
0.794489
  0
ARC
  8
APS_GEOMETRY
 10
2.262016
 20
0.908881
 40
1.3125
 50
110.000024
 51
185.000012
  0
LINE
  8
APS_GEOMETRY
 10
1.813114
 11
1.855253
 20
2.142228
 21
2.157564
  0
ARC
  8
APS_GEOMETRY
 10
1.8125
 20
2.275025
 40
0.125
 50
290.000235
 51
0.000274
  0
LINE
  8
APS_GEOMETRY
 10
1.9375
 11
1.9375
 20
2.275026
 21
2.375
  0
LINE
  8
APS_GEOMETRY
 10
1.9375
 11
2.09375
 20
2.375
 21
2.375
  0
LINE
  8
CONSTRUCTION
 10
0.152615
 11
0.10065
 20
-1.038482
 21
-1.166909
  0
LINE
  8
CONSTRUCTION
 10
0.10065
 11
0.20458
 20
-1.166909
 21
-1.166909
  0
LINE
  8
CONSTRUCTION
 10
0.20458
 11
0.152615
 20
-1.166909
 21
-1.038482
  0
LINE
  8
CONSTRUCTION
 10
0.152615
 11
0.559547
 20
-1.038482
 21
-1.03848
  0
LINE
  8
CONSTRUCTION
 10
0.559547
 11
0.507582
 20
-1.03848
 21
-1.166908
  0
LINE
  8
CONSTRUCTION
 10
0.507582
 11
0.611512
 20
-1.166908
 21
-1.166908
  0
LINE
  8
CONSTRUCTION
 10
0.611512
 11
0.559547
 20
-1.166908
 21
-1.03848
  0
LINE
  8
CONSTRUCTION
 10
0.559547
 11
0.966478
 20
-1.03848
 21
-1.03848
  0
LINE
  8
CONSTRUCTION
 10
0.966478
 11
0.914513
 20
-1.03848
 21
-1.166908
  0
LINE
  8
CONSTRUCTION
 10
0.914513
 11
1.018442
 20
-1.166908
 21
-1.166908
  0
LINE
  8
CONSTRUCTION
 10
1.018442
 11
0.966478
 20
-1.166908
 21
-1.03848
  0
LINE
  8
CONSTRUCTION
 10
0.966478
 11
1.373408
 20
-1.03848
 21
-1.03848
  0
LINE
  8
CONSTRUCTION
 10
1.373408
 11
1.321443
 20
-1.03848
 21
-1.166908
  0
LINE
  8
CONSTRUCTION
 10
1.321443
 11
1.425373
 20
-1.166908
 21
-1.166908
  0
LINE
  8
CONSTRUCTION
 10
1.425373
 11
1.373408
 20
-1.166908
 21
-1.03848
  0
LINE
  8
CONSTRUCTION
 10
1.373408
 11
1.780281
 20
-1.03848
 21
-1.038482
  0
LINE
  8
CONSTRUCTION
 10
1.780281
 11
1.728316
 20
-1.038482
 21
-1.166909
  0
LINE
  8
CONSTRUCTION
 10
1.728316
 11
1.832246
 20
-1.166909
 21
-1.166909
  0
LINE
  8
CONSTRUCTION
 10
1.832246
 11
1.780281
 20
-1.166909
 21
-1.038482
  0
LINE
  8
CONSTRUCTION
 10
0.0
 11
4.0
 20
-1.561751
 21
-1.561751
  0
TEXT
  8
TEXT
 10
0.0
 20
-0.5
 30
0.0
 40
0.1
 50
0.0
  1
2-1/4"x2-7/8"
  0
TEXT
  8
TEXT
 10
0.0
 20
-0.65
 30
0.0
 40
0.1
 50
0.0
  1
(27/32"x3-41/64")
  0
TEXT
  8
TEXT
 10
0.0
 20
-0.25
 30
0.0
 40
0.15625
 50
0.0
  1
CN179
  0
TEXT
  8
TEXT
 10
0.10065
 20
-1.405784
 30
0.0
 40
0.224
 50
0.0
  1
DOVETAIL DESIGNS
  0
TEXT
  8
TEXT
 10
2.276036
 20
-1.551751
 30
0.0
 40
0.099
 50
0.0
  1
& MILLWORK INC.
  0
TEXT
  8
TEXT
 10
1.092458
 20
-1.640461
 30
0.0
 40
0.07
 50
0.0
  1
Established 1979
  0
TEXT
  8
TEXT
 10
0.1
 20
-1.8
 30
0.0
 40
0.1
 50
0.0
  1
Phone: (406) 248-5010    Website: www.dovetailmt.com
  0
ENDSEC
  0
EOF
