  0
SECTION
  2
ENTITIES
  0
ARC
  8
APS_GEOMETRY
 10
0.380701
 20
1.132475
 40
0.725045
 50
275.418758
 51
293.473198
  0
ARC
  8
APS_GEOMETRY
 10
0.316695
 20
1.279865
 40
0.885733
 50
293.473218
 51
309.293203
  0
ARC
  8
APS_GEOMETRY
 10
0.375112
 20
1.208477
 40
0.79349
 50
309.293176
 51
325.527921
  0
ARC
  8
APS_GEOMETRY
 10
0.065522
 20
1.421029
 40
1.169022
 50
325.528004
 51
337.283122
  0
LINE
  8
APS_GEOMETRY
 10
1.143856
 11
1.300597
 20
0.969578
 21
1.410745
  0
ARC
  8
APS_GEOMETRY
 10
2.597262
 20
0.909193
 40
1.390286
 50
148.751983
 51
158.853463
  0
ARC
  8
APS_GEOMETRY
 10
2.048634
 20
1.24209
 40
0.748559
 50
132.179724
 51
148.752418
  0
ARC
  8
APS_GEOMETRY
 10
2.091908
 20
1.194334
 40
0.813005
 50
114.87558
 51
132.179874
  0
ARC
  8
APS_GEOMETRY
 10
2.017642
 20
1.354471
 40
0.636485
 50
93.766627
 51
114.874288
  0
LINE
  8
APS_GEOMETRY
 10
1.97583
 11
1.97583
 20
1.989581
 21
2.580428
  0
LINE
  8
APS_GEOMETRY
 10
1.97583
 11
1.503543
 20
2.580428
 21
2.580428
  0
LINE
  8
APS_GEOMETRY
 10
1.503543
 11
0.0
 20
2.580428
 21
0.620973
  0
LINE
  8
APS_GEOMETRY
 10
0.0
 11
0.0
 20
0.620973
 21
0.0
  0
LINE
  8
APS_GEOMETRY
 10
0.0
 11
0.44917
 20
0.0
 21
0.0
  0
LINE
  8
APS_GEOMETRY
 10
0.44917
 11
0.44917
 20
0.0
 21
0.41067
  0
LINE
  8
CONSTRUCTION
 10
0.152615
 11
0.10065
 20
-1.038482
 21
-1.166909
  0
LINE
  8
CONSTRUCTION
 10
0.10065
 11
0.20458
 20
-1.166909
 21
-1.166909
  0
LINE
  8
CONSTRUCTION
 10
0.20458
 11
0.152615
 20
-1.166909
 21
-1.038482
  0
LINE
  8
CONSTRUCTION
 10
0.152615
 11
0.559547
 20
-1.038482
 21
-1.03848
  0
LINE
  8
CONSTRUCTION
 10
0.559547
 11
0.507582
 20
-1.03848
 21
-1.166908
  0
LINE
  8
CONSTRUCTION
 10
0.507582
 11
0.611512
 20
-1.166908
 21
-1.166908
  0
LINE
  8
CONSTRUCTION
 10
0.611512
 11
0.559547
 20
-1.166908
 21
-1.03848
  0
LINE
  8
CONSTRUCTION
 10
0.559547
 11
0.966478
 20
-1.03848
 21
-1.03848
  0
LINE
  8
CONSTRUCTION
 10
0.966478
 11
0.914513
 20
-1.03848
 21
-1.166908
  0
LINE
  8
CONSTRUCTION
 10
0.914513
 11
1.018442
 20
-1.166908
 21
-1.166908
  0
LINE
  8
CONSTRUCTION
 10
1.018442
 11
0.966478
 20
-1.166908
 21
-1.03848
  0
LINE
  8
CONSTRUCTION
 10
0.966478
 11
1.373408
 20
-1.03848
 21
-1.03848
  0
LINE
  8
CONSTRUCTION
 10
1.373408
 11
1.321443
 20
-1.03848
 21
-1.166908
  0
LINE
  8
CONSTRUCTION
 10
1.321443
 11
1.425373
 20
-1.166908
 21
-1.166908
  0
LINE
  8
CONSTRUCTION
 10
1.425373
 11
1.373408
 20
-1.166908
 21
-1.03848
  0
LINE
  8
CONSTRUCTION
 10
1.373408
 11
1.780281
 20
-1.03848
 21
-1.038482
  0
LINE
  8
CONSTRUCTION
 10
1.780281
 11
1.728316
 20
-1.038482
 21
-1.166909
  0
LINE
  8
CONSTRUCTION
 10
1.728316
 11
1.832246
 20
-1.166909
 21
-1.166909
  0
LINE
  8
CONSTRUCTION
 10
1.832246
 11
1.780281
 20
-1.166909
 21
-1.038482
  0
LINE
  8
CONSTRUCTION
 10
0.0
 11
4.0
 20
-1.561751
 21
-1.561751
  0
TEXT
  8
TEXT
 10
0.10065
 20
-1.405784
 30
0.0
 40
0.224
 50
0.0
  1
DOVETAIL DESIGNS
  0
TEXT
  8
TEXT
 10
2.276036
 20
-1.551751
 30
0.0
 40
0.099
 50
0.0
  1
& MILLWORK INC.
  0
TEXT
  8
TEXT
 10
1.092458
 20
-1.640461
 30
0.0
 40
0.07
 50
0.0
  1
Established 1979
  0
TEXT
  8
TEXT
 10
0.1
 20
-1.8
 30
0.0
 40
0.1
 50
0.0
  1
Phone: (406) 248-5010    Website: www.dovetailmt.com
  0
TEXT
  8
TEXT
 10
0.0
 20
-0.25
 30
0.0
 40
0.15625
 50
0.0
  1
CN17
  0
TEXT
  8
TEXT
 10
0.0
 20
-0.5
 30
0.0
 40
0.1
 50
0.0
  1
2"x2-5/8"
  0
TEXT
  8
TEXT
 10
0.0
 20
-0.65
 30
0.0
 40
0.1
 50
0.0
  1
(3/4"x3-1/4")
  0
ENDSEC
  0
EOF
