  0
SECTION
  2
ENTITIES
  0
ARC
  8
APS_GEOMETRY
 10
0.75
 20
0.03125
 40
0.5625
 50
93.38191
 51
180.0
  0
LINE
  8
APS_GEOMETRY
 10
0.1875
 11
0.1875
 20
0.03125
 21
0.0
  0
LINE
  8
APS_GEOMETRY
 10
0.1875
 11
0.0
 20
0.0
 21
0.0
  0
LINE
  8
APS_GEOMETRY
 10
0.0
 11
0.0
 20
0.0
 21
0.75
  0
LINE
  8
APS_GEOMETRY
 10
0.0
 11
1.375
 20
0.75
 21
2.625
  0
LINE
  8
APS_GEOMETRY
 10
1.375
 11
1.8125
 20
2.625
 21
2.65625
  0
LINE
  8
APS_GEOMETRY
 10
1.8125
 11
1.8125
 20
2.65625
 21
2.078125
  0
ARC
  8
APS_GEOMETRY
 10
1.944375
 20
1.237436
 40
0.85097
 50
98.915096
 51
107.043995
  0
ARC
  8
APS_GEOMETRY
 10
1.876902
 20
1.457545
 40
0.620751
 50
107.044451
 51
115.892028
  0
ARC
  8
APS_GEOMETRY
 10
1.883085
 20
1.444792
 40
0.634924
 50
115.891506
 51
123.926195
  0
ARC
  8
APS_GEOMETRY
 10
1.971332
 20
1.313592
 40
0.793041
 50
123.925988
 51
130.286825
  0
ARC
  8
APS_GEOMETRY
 10
1.945228
 20
1.344398
 40
0.752662
 50
130.287413
 51
136.799259
  0
ARC
  8
APS_GEOMETRY
 10
1.898422
 20
1.388357
 40
0.68845
 50
136.799424
 51
143.641371
  0
ARC
  8
APS_GEOMETRY
 10
1.867657
 20
1.410996
 40
0.650253
 50
143.640774
 51
150.653797
  0
ARC
  8
APS_GEOMETRY
 10
2.081337
 20
1.290859
 40
0.89539
 50
150.653887
 51
156.029347
  0
ARC
  8
APS_GEOMETRY
 10
2.345827
 20
1.173255
 40
1.184848
 50
156.029006
 51
159.337168
  0
ARC
  8
APS_GEOMETRY
 10
4.962795
 20
0.186373
 40
3.981713
 50
159.337811
 51
160.59703
  0
LINE
  8
APS_GEOMETRY
 10
1.207221
 11
1.159736
 20
1.509137
 21
1.373582
  0
ARC
  8
APS_GEOMETRY
 10
-48.585806
 20
18.786019
 40
52.704952
 50
340.585892
 51
340.708417
  0
ARC
  8
APS_GEOMETRY
 10
-0.989514
 20
2.011528
 40
2.239215
 50
339.314255
 51
340.586295
  0
ARC
  8
APS_GEOMETRY
 10
0.090646
 20
1.603688
 40
1.084625
 50
333.896536
 51
339.313688
  0
ARC
  8
APS_GEOMETRY
 10
0.544721
 20
1.381194
 40
0.578969
 50
324.598608
 51
333.89752
  0
ARC
  8
APS_GEOMETRY
 10
0.608954
 20
1.335552
 40
0.500171
 50
312.40441
 51
324.597807
  0
ARC
  8
APS_GEOMETRY
 10
0.509724
 20
1.444203
 40
0.647316
 50
302.336965
 51
312.404608
  0
ARC
  8
APS_GEOMETRY
 10
0.501879
 20
1.45659
 40
0.661978
 50
292.309337
 51
302.33717
  0
ARC
  8
APS_GEOMETRY
 10
0.667222
 20
1.053639
 40
0.226424
 50
275.138233
 51
292.308552
  0
LINE
  8
APS_GEOMETRY
 10
0.6875
 11
0.716817
 20
0.828125
 21
0.59277
  0
LINE
  8
CONSTRUCTION
 10
0.152615
 11
0.10065
 20
-1.038482
 21
-1.166909
  0
LINE
  8
CONSTRUCTION
 10
0.10065
 11
0.20458
 20
-1.166909
 21
-1.166909
  0
LINE
  8
CONSTRUCTION
 10
0.20458
 11
0.152615
 20
-1.166909
 21
-1.038482
  0
LINE
  8
CONSTRUCTION
 10
0.152615
 11
0.559547
 20
-1.038482
 21
-1.03848
  0
LINE
  8
CONSTRUCTION
 10
0.559547
 11
0.507582
 20
-1.03848
 21
-1.166908
  0
LINE
  8
CONSTRUCTION
 10
0.507582
 11
0.611512
 20
-1.166908
 21
-1.166908
  0
LINE
  8
CONSTRUCTION
 10
0.611512
 11
0.559547
 20
-1.166908
 21
-1.03848
  0
LINE
  8
CONSTRUCTION
 10
0.559547
 11
0.966478
 20
-1.03848
 21
-1.03848
  0
LINE
  8
CONSTRUCTION
 10
0.966478
 11
0.914513
 20
-1.03848
 21
-1.166908
  0
LINE
  8
CONSTRUCTION
 10
0.914513
 11
1.018442
 20
-1.166908
 21
-1.166908
  0
LINE
  8
CONSTRUCTION
 10
1.018442
 11
0.966478
 20
-1.166908
 21
-1.03848
  0
LINE
  8
CONSTRUCTION
 10
0.966478
 11
1.373408
 20
-1.03848
 21
-1.03848
  0
LINE
  8
CONSTRUCTION
 10
1.373408
 11
1.321443
 20
-1.03848
 21
-1.166908
  0
LINE
  8
CONSTRUCTION
 10
1.321443
 11
1.425373
 20
-1.166908
 21
-1.166908
  0
LINE
  8
CONSTRUCTION
 10
1.425373
 11
1.373408
 20
-1.166908
 21
-1.03848
  0
LINE
  8
CONSTRUCTION
 10
1.373408
 11
1.780281
 20
-1.03848
 21
-1.038482
  0
LINE
  8
CONSTRUCTION
 10
1.780281
 11
1.728316
 20
-1.038482
 21
-1.166909
  0
LINE
  8
CONSTRUCTION
 10
1.728316
 11
1.832246
 20
-1.166909
 21
-1.166909
  0
LINE
  8
CONSTRUCTION
 10
1.832246
 11
1.780281
 20
-1.166909
 21
-1.038482
  0
LINE
  8
CONSTRUCTION
 10
0.0
 11
4.0
 20
-1.561751
 21
-1.561751
  0
TEXT
  8
TEXT
 10
0.10065
 20
-1.405784
 30
0.0
 40
0.224
 50
0.0
  1
DOVETAIL DESIGNS
  0
TEXT
  8
TEXT
 10
2.276036
 20
-1.551751
 30
0.0
 40
0.099
 50
0.0
  1
& MILLWORK INC.
  0
TEXT
  8
TEXT
 10
1.092458
 20
-1.640461
 30
0.0
 40
0.07
 50
0.0
  1
Established 1979
  0
TEXT
  8
TEXT
 10
0.1
 20
-1.8
 30
0.0
 40
0.1
 50
0.0
  1
Phone: (406) 248-5010    Website: www.dovetailmt.com
  0
TEXT
  8
TEXT
 10
0.0
 20
-0.65
 30
0.0
 40
0.1
 50
0.0
  1
(43/64"x3-7/32")
  0
TEXT
  8
TEXT
 10
0.0
 20
-0.5
 30
0.0
 40
0.1
 50
0.0
  1
1-13/16"x2-21/32"
  0
TEXT
  8
TEXT
 10
0.0
 20
-0.25
 30
0.0
 40
0.15625
 50
0.0
  1
CN164
  0
ENDSEC
  0
EOF
