  0
SECTION
  2
ENTITIES
  0
ARC
  8
APS_GEOMETRY
 10
4.164999
 20
4.502889
 40
0.6063
 50
270.0
 51
359.68149
  0
LINE
  8
APS_GEOMETRY
 10
4.77129
 11
3.749519
 20
4.499519
 21
4.499518
  0
LINE
  8
APS_GEOMETRY
 10
3.749519
 11
0.000018
 20
4.499518
 21
0.750017
  0
LINE
  8
APS_GEOMETRY
 10
0.000018
 11
0.0
 20
0.750017
 21
0.0
  0
LINE
  8
APS_GEOMETRY
 10
0.0
 11
0.392012
 20
0.0
 21
0.0
  0
ARC
  8
APS_GEOMETRY
 10
0.998312
 20
0.0
 40
0.6063
 50
90.31851
 51
180.0
  0
LINE
  8
APS_GEOMETRY
 10
0.994942
 11
0.994941
 20
0.606291
 21
0.984017
  0
ARC
  8
APS_GEOMETRY
 10
0.870063
 20
3.03017
 40
2.04996
 50
273.49247
 51
316.27118
  0
ARC
  8
APS_GEOMETRY
 10
-0.227496
 20
4.080075
 40
3.56882
 50
316.271194
 51
324.158631
  0
ARC
  8
APS_GEOMETRY
 10
1.080227
 20
3.135482
 40
1.955626
 50
324.158565
 51
347.743724
  0
ARC
  8
APS_GEOMETRY
 10
4.256989
 20
2.445376
 40
1.29523
 50
94.072713
 51
167.743757
  0
LINE
  8
APS_GEOMETRY
 10
4.164999
 11
4.164999
 20
3.737335
 21
3.896589
  0
LINE
  8
CONSTRUCTION
 10
0.152615
 11
0.10065
 20
-1.038482
 21
-1.166909
  0
LINE
  8
CONSTRUCTION
 10
0.10065
 11
0.20458
 20
-1.166909
 21
-1.166909
  0
LINE
  8
CONSTRUCTION
 10
0.20458
 11
0.152615
 20
-1.166909
 21
-1.038482
  0
LINE
  8
CONSTRUCTION
 10
0.152615
 11
0.559547
 20
-1.038482
 21
-1.03848
  0
LINE
  8
CONSTRUCTION
 10
0.559547
 11
0.507582
 20
-1.03848
 21
-1.166908
  0
LINE
  8
CONSTRUCTION
 10
0.507582
 11
0.611512
 20
-1.166908
 21
-1.166908
  0
LINE
  8
CONSTRUCTION
 10
0.611512
 11
0.559547
 20
-1.166908
 21
-1.03848
  0
LINE
  8
CONSTRUCTION
 10
0.559547
 11
0.966478
 20
-1.03848
 21
-1.03848
  0
LINE
  8
CONSTRUCTION
 10
0.966478
 11
0.914513
 20
-1.03848
 21
-1.166908
  0
LINE
  8
CONSTRUCTION
 10
0.914513
 11
1.018442
 20
-1.166908
 21
-1.166908
  0
LINE
  8
CONSTRUCTION
 10
1.018442
 11
0.966478
 20
-1.166908
 21
-1.03848
  0
LINE
  8
CONSTRUCTION
 10
0.966478
 11
1.373408
 20
-1.03848
 21
-1.03848
  0
LINE
  8
CONSTRUCTION
 10
1.373408
 11
1.321443
 20
-1.03848
 21
-1.166908
  0
LINE
  8
CONSTRUCTION
 10
1.321443
 11
1.425373
 20
-1.166908
 21
-1.166908
  0
LINE
  8
CONSTRUCTION
 10
1.425373
 11
1.373408
 20
-1.166908
 21
-1.03848
  0
LINE
  8
CONSTRUCTION
 10
1.373408
 11
1.780281
 20
-1.03848
 21
-1.038482
  0
LINE
  8
CONSTRUCTION
 10
1.780281
 11
1.728316
 20
-1.038482
 21
-1.166909
  0
LINE
  8
CONSTRUCTION
 10
1.728316
 11
1.832246
 20
-1.166909
 21
-1.166909
  0
LINE
  8
CONSTRUCTION
 10
1.832246
 11
1.780281
 20
-1.166909
 21
-1.038482
  0
LINE
  8
CONSTRUCTION
 10
0.0
 11
4.0
 20
-1.561751
 21
-1.561751
  0
TEXT
  8
TEXT
 10
0.10065
 20
-1.405784
 30
0.0
 40
0.224
 50
0.0
  1
DOVETAIL DESIGNS
  0
TEXT
  8
TEXT
 10
2.276036
 20
-1.551751
 30
0.0
 40
0.099
 50
0.0
  1
& MILLWORK INC.
  0
TEXT
  8
TEXT
 10
1.092458
 20
-1.640461
 30
0.0
 40
0.07
 50
0.0
  1
Established 1979
  0
TEXT
  8
TEXT
 10
0.1
 20
-1.8
 30
0.0
 40
0.1
 50
0.0
  1
Phone: (406) 248-5010    Website: www.dovetailmt.com
  0
TEXT
  8
TEXT
 10
0.0
 20
-0.25
 30
0.0
 40
0.15625
 50
0.0
  1
CN163
  0
TEXT
  8
TEXT
 10
0.0
 20
-0.5
 30
0.0
 40
0.1
 50
0.0
  1
4-49/64"x4-1/2"
  0
TEXT
  8
TEXT
 10
0.0
 20
-0.65
 30
0.0
 40
0.1
 50
0.0
  1
(1-3/64"x6-9/16")
  0
ENDSEC
  0
EOF
