  0
SECTION
  2
ENTITIES
  0
ARC
  8
APS_GEOMETRY
 10
2.97666
 20
3.791117
 40
0.854792
 50
270.380703
 51
329.075777
  0
LINE
  8
APS_GEOMETRY
 10
3.709941
 11
3.906145
 20
3.351836
 21
3.351836
  0
LINE
  8
APS_GEOMETRY
 10
3.906145
 11
3.905763
 20
3.351836
 21
3.745785
  0
LINE
  8
APS_GEOMETRY
 10
3.905763
 11
3.245785
 20
3.745785
 21
3.745785
  0
LINE
  8
APS_GEOMETRY
 10
3.245785
 11
0.0
 20
3.745785
 21
0.5
  0
LINE
  8
APS_GEOMETRY
 10
0.0
 11
0.0
 20
0.5
 21
0.0
  0
LINE
  8
APS_GEOMETRY
 10
0.0
 11
0.375
 20
0.0
 21
0.0
  0
ARC
  8
APS_GEOMETRY
 10
0.774951
 20
0.006258
 40
0.4
 50
98.938697
 51
180.89642
  0
LINE
  8
APS_GEOMETRY
 10
0.7128
 11
0.7128
 20
0.4014
 21
0.651371
  0
LINE
  8
APS_GEOMETRY
 10
0.7128
 11
0.982563
 20
0.651371
 21
0.651371
  0
ARC
  8
APS_GEOMETRY
 10
1.701342
 20
0.458194
 40
0.744285
 50
121.030863
 51
164.956793
  0
ARC
  8
APS_GEOMETRY
 10
-5.283435
 20
12.068626
 40
12.805226
 50
301.030901
 51
305.405302
  0
ARC
  8
APS_GEOMETRY
 10
0.911629
 20
3.353033
 40
2.11222
 50
305.405303
 51
348.622313
  0
LINE
  8
CONSTRUCTION
 10
0.152615
 11
0.10065
 20
-1.038482
 21
-1.166909
  0
LINE
  8
CONSTRUCTION
 10
0.10065
 11
0.20458
 20
-1.166909
 21
-1.166909
  0
LINE
  8
CONSTRUCTION
 10
0.20458
 11
0.152615
 20
-1.166909
 21
-1.038482
  0
LINE
  8
CONSTRUCTION
 10
0.152615
 11
0.559547
 20
-1.038482
 21
-1.03848
  0
LINE
  8
CONSTRUCTION
 10
0.559547
 11
0.507582
 20
-1.03848
 21
-1.166908
  0
LINE
  8
CONSTRUCTION
 10
0.507582
 11
0.611512
 20
-1.166908
 21
-1.166908
  0
LINE
  8
CONSTRUCTION
 10
0.611512
 11
0.559547
 20
-1.166908
 21
-1.03848
  0
LINE
  8
CONSTRUCTION
 10
0.559547
 11
0.966478
 20
-1.03848
 21
-1.03848
  0
LINE
  8
CONSTRUCTION
 10
0.966478
 11
0.914513
 20
-1.03848
 21
-1.166908
  0
LINE
  8
CONSTRUCTION
 10
0.914513
 11
1.018442
 20
-1.166908
 21
-1.166908
  0
LINE
  8
CONSTRUCTION
 10
1.018442
 11
0.966478
 20
-1.166908
 21
-1.03848
  0
LINE
  8
CONSTRUCTION
 10
0.966478
 11
1.373408
 20
-1.03848
 21
-1.03848
  0
LINE
  8
CONSTRUCTION
 10
1.373408
 11
1.321443
 20
-1.03848
 21
-1.166908
  0
LINE
  8
CONSTRUCTION
 10
1.321443
 11
1.425373
 20
-1.166908
 21
-1.166908
  0
LINE
  8
CONSTRUCTION
 10
1.425373
 11
1.373408
 20
-1.166908
 21
-1.03848
  0
LINE
  8
CONSTRUCTION
 10
1.373408
 11
1.780281
 20
-1.03848
 21
-1.038482
  0
LINE
  8
CONSTRUCTION
 10
1.780281
 11
1.728316
 20
-1.038482
 21
-1.166909
  0
LINE
  8
CONSTRUCTION
 10
1.728316
 11
1.832246
 20
-1.166909
 21
-1.166909
  0
LINE
  8
CONSTRUCTION
 10
1.832246
 11
1.780281
 20
-1.166909
 21
-1.038482
  0
LINE
  8
CONSTRUCTION
 10
0.0
 11
4.0
 20
-1.561751
 21
-1.561751
  0
TEXT
  8
TEXT
 10
0.10065
 20
-1.405784
 30
0.0
 40
0.224
 50
0.0
  1
DOVETAIL DESIGNS
  0
TEXT
  8
TEXT
 10
2.276036
 20
-1.551751
 30
0.0
 40
0.099
 50
0.0
  1
& MILLWORK INC.
  0
TEXT
  8
TEXT
 10
1.092458
 20
-1.640461
 30
0.0
 40
0.07
 50
0.0
  1
Established 1979
  0
TEXT
  8
TEXT
 10
0.1
 20
-1.8
 30
0.0
 40
0.1
 50
0.0
  1
Phone: (406) 248-5010    Website: www.dovetailmt.com
  0
TEXT
  8
TEXT
 10
0.0
 20
-0.65
 30
0.0
 40
0.1
 50
0.0
  1
(3/4"x5-13/32")
  0
TEXT
  8
TEXT
 10
0.0
 20
-0.5
 30
0.0
 40
0.1
 50
0.0
  1
3-29/32"x3-3/4"
  0
TEXT
  8
TEXT
 10
0.0
 20
-0.25
 30
0.0
 40
0.15625
 50
0.0
  1
CN162
  0
ENDSEC
  0
EOF
