  0
SECTION
  2
ENTITIES
  0
ARC
  8
APS_GEOMETRY
 10
0.893521
 20
0.0625
 40
0.580521
 50
100.70832
 51
180.0
  0
LINE
  8
APS_GEOMETRY
 10
0.313
 11
0.313
 20
0.0625
 21
0.0
  0
LINE
  8
APS_GEOMETRY
 10
0.313
 11
0.0
 20
0.0
 21
0.0
  0
LINE
  8
APS_GEOMETRY
 10
0.0
 11
0.0
 20
0.0
 21
0.639294
  0
LINE
  8
APS_GEOMETRY
 10
0.0
 11
1.942046
 20
0.639294
 21
3.125
  0
LINE
  8
APS_GEOMETRY
 10
1.942046
 11
2.625
 20
3.125
 21
3.125
  0
LINE
  8
APS_GEOMETRY
 10
2.625
 11
2.625
 20
3.125
 21
2.812
  0
LINE
  8
APS_GEOMETRY
 10
2.625
 11
2.500299
 20
2.812
 21
2.803356
  0
ARC
  8
APS_GEOMETRY
 10
2.527029
 20
2.417757
 40
0.386524
 50
93.965453
 51
171.301244
  0
ARC
  8
APS_GEOMETRY
 10
1.299323
 20
2.605596
 40
0.855469
 50
335.300394
 51
351.301214
  0
ARC
  8
APS_GEOMETRY
 10
1.884063
 20
2.33665
 40
0.211844
 50
267.548155
 51
335.3005
  0
LINE
  8
APS_GEOMETRY
 10
1.875
 11
1.875
 20
2.125
 21
2.0
  0
LINE
  8
APS_GEOMETRY
 10
1.875
 11
1.812991
 20
2.0
 21
1.995483
  0
ARC
  8
APS_GEOMETRY
 10
1.877096
 20
1.115458
 40
0.882357
 50
94.166297
 51
123.741271
  0
ARC
  8
APS_GEOMETRY
 10
1.815856
 20
1.207138
 40
0.772105
 50
123.741214
 51
145.527295
  0
ARC
  8
APS_GEOMETRY
 10
3.137978
 20
0.299401
 40
2.375848
 50
145.527408
 51
171.930437
  0
LINE
  8
CONSTRUCTION
 10
0.152615
 11
0.10065
 20
-1.038482
 21
-1.166909
  0
LINE
  8
CONSTRUCTION
 10
0.10065
 11
0.20458
 20
-1.166909
 21
-1.166909
  0
LINE
  8
CONSTRUCTION
 10
0.20458
 11
0.152615
 20
-1.166909
 21
-1.038482
  0
LINE
  8
CONSTRUCTION
 10
0.152615
 11
0.559547
 20
-1.038482
 21
-1.03848
  0
LINE
  8
CONSTRUCTION
 10
0.559547
 11
0.507582
 20
-1.03848
 21
-1.166908
  0
LINE
  8
CONSTRUCTION
 10
0.507582
 11
0.611512
 20
-1.166908
 21
-1.166908
  0
LINE
  8
CONSTRUCTION
 10
0.611512
 11
0.559547
 20
-1.166908
 21
-1.03848
  0
LINE
  8
CONSTRUCTION
 10
0.559547
 11
0.966478
 20
-1.03848
 21
-1.03848
  0
LINE
  8
CONSTRUCTION
 10
0.966478
 11
0.914513
 20
-1.03848
 21
-1.166908
  0
LINE
  8
CONSTRUCTION
 10
0.914513
 11
1.018442
 20
-1.166908
 21
-1.166908
  0
LINE
  8
CONSTRUCTION
 10
1.018442
 11
0.966478
 20
-1.166908
 21
-1.03848
  0
LINE
  8
CONSTRUCTION
 10
0.966478
 11
1.373408
 20
-1.03848
 21
-1.03848
  0
LINE
  8
CONSTRUCTION
 10
1.373408
 11
1.321443
 20
-1.03848
 21
-1.166908
  0
LINE
  8
CONSTRUCTION
 10
1.321443
 11
1.425373
 20
-1.166908
 21
-1.166908
  0
LINE
  8
CONSTRUCTION
 10
1.425373
 11
1.373408
 20
-1.166908
 21
-1.03848
  0
LINE
  8
CONSTRUCTION
 10
1.373408
 11
1.780281
 20
-1.03848
 21
-1.038482
  0
LINE
  8
CONSTRUCTION
 10
1.780281
 11
1.728316
 20
-1.038482
 21
-1.166909
  0
LINE
  8
CONSTRUCTION
 10
1.728316
 11
1.832246
 20
-1.166909
 21
-1.166909
  0
LINE
  8
CONSTRUCTION
 10
1.832246
 11
1.780281
 20
-1.166909
 21
-1.038482
  0
LINE
  8
CONSTRUCTION
 10
0.0
 11
4.0
 20
-1.561751
 21
-1.561751
  0
TEXT
  8
TEXT
 10
0.10065
 20
-1.405784
 30
0.0
 40
0.224
 50
0.0
  1
DOVETAIL DESIGNS
  0
TEXT
  8
TEXT
 10
2.276036
 20
-1.551751
 30
0.0
 40
0.099
 50
0.0
  1
& MILLWORK INC.
  0
TEXT
  8
TEXT
 10
1.092458
 20
-1.640461
 30
0.0
 40
0.07
 50
0.0
  1
Established 1979
  0
TEXT
  8
TEXT
 10
0.1
 20
-1.8
 30
0.0
 40
0.1
 50
0.0
  1
Phone: (406) 248-5010    Website: www.dovetailmt.com
  0
TEXT
  8
TEXT
 10
0.0
 20
-0.25
 30
0.0
 40
0.15625
 50
0.0
  1
CN157
  0
TEXT
  8
TEXT
 10
0.0
 20
-0.5
 30
0.0
 40
0.1
 50
0.0
  1
2-5/8"x3-1/8"
  0
TEXT
  8
TEXT
 10
0.0
 20
-0.65
 30
0.0
 40
0.1
 50
0.0
  1
(47/64"x4-5/64")
  0
ENDSEC
  0
EOF
