  0
SECTION
  2
ENTITIES
  0
ARC
  8
APS_GEOMETRY
 10
0.475337
 20
1.529825
 40
0.923644
 50
274.766252
 51
285.52835
  0
ARC
  8
APS_GEOMETRY
 10
0.41568
 20
1.74453
 40
1.146483
 50
285.528314
 51
294.946852
  0
ARC
  8
APS_GEOMETRY
 10
0.35847
 20
1.867511
 40
1.28212
 50
294.946935
 51
303.24328
  0
ARC
  8
APS_GEOMETRY
 10
0.220463
 20
2.07807
 40
1.533876
 50
303.243104
 51
310.724121
  0
ARC
  8
APS_GEOMETRY
 10
0.153449
 20
2.155898
 40
1.636579
 50
310.724503
 51
317.700443
  0
ARC
  8
APS_GEOMETRY
 10
0.072695
 20
2.229397
 40
1.745773
 50
317.699958
 51
324.458597
  0
ARC
  8
APS_GEOMETRY
 10
0.107646
 20
2.204425
 40
1.702818
 50
324.458707
 51
331.140825
  0
ARC
  8
APS_GEOMETRY
 10
-0.502366
 20
2.540591
 40
2.399325
 50
331.14107
 51
336.281761
  0
ARC
  8
APS_GEOMETRY
 10
-1.309833
 20
2.895368
 40
3.281294
 50
336.281486
 51
339.402791
  0
ARC
  8
APS_GEOMETRY
 10
-9.314974
 20
5.903796
 40
11.833073
 50
339.40307
 51
340.596502
  0
ARC
  8
APS_GEOMETRY
 10
23.497515
 20
-5.653546
 40
22.95531
 50
159.950655
 51
160.596528
  0
ARC
  8
APS_GEOMETRY
 10
5.837708
 20
0.791284
 40
4.156251
 50
157.513772
 51
159.950101
  0
ARC
  8
APS_GEOMETRY
 10
4.853884
 20
1.198551
 40
3.091462
 50
153.31849
 51
157.514306
  0
ARC
  8
APS_GEOMETRY
 10
4.151608
 20
1.55148
 40
2.305491
 50
147.946349
 51
153.318595
  0
ARC
  8
APS_GEOMETRY
 10
4.337879
 20
1.434817
 40
2.52528
 50
142.893789
 51
147.945854
  0
ARC
  8
APS_GEOMETRY
 10
4.250376
 20
1.501029
 40
2.415549
 50
137.836796
 51
142.894139
  0
ARC
  8
APS_GEOMETRY
 10
4.061186
 20
1.672343
 40
2.160321
 50
132.229449
 51
137.836582
  0
ARC
  8
APS_GEOMETRY
 10
3.55384
 20
2.23129
 40
1.405456
 50
125.245131
 51
132.229459
  0
ARC
  8
APS_GEOMETRY
 10
3.319264
 20
2.563273
 40
0.99896
 50
115.348109
 51
125.245313
  0
ARC
  8
APS_GEOMETRY
 10
3.067132
 20
3.095511
 40
0.410023
 50
99.42338
 51
115.348388
  0
LINE
  8
APS_GEOMETRY
 10
3.0
 11
3.0
 20
3.5
 21
4.25
  0
LINE
  8
APS_GEOMETRY
 10
3.0
 11
2.5625
 20
4.25
 21
4.21875
  0
LINE
  8
APS_GEOMETRY
 10
2.5625
 11
0.046875
 20
4.21875
 21
0.53125
  0
LINE
  8
APS_GEOMETRY
 10
0.046875
 11
0.0
 20
0.53125
 21
0.0625
  0
LINE
  8
APS_GEOMETRY
 10
0.0
 11
0.46875
 20
0.0625
 21
0.0
  0
LINE
  8
APS_GEOMETRY
 10
0.46875
 11
0.552083
 20
0.0
 21
0.609375
  0
LINE
  8
CONSTRUCTION
 10
0.152615
 11
0.10065
 20
-1.038482
 21
-1.166909
  0
LINE
  8
CONSTRUCTION
 10
0.10065
 11
0.20458
 20
-1.166909
 21
-1.166909
  0
LINE
  8
CONSTRUCTION
 10
0.20458
 11
0.152615
 20
-1.166909
 21
-1.038482
  0
LINE
  8
CONSTRUCTION
 10
0.152615
 11
0.559547
 20
-1.038482
 21
-1.03848
  0
LINE
  8
CONSTRUCTION
 10
0.559547
 11
0.507582
 20
-1.03848
 21
-1.166908
  0
LINE
  8
CONSTRUCTION
 10
0.507582
 11
0.611512
 20
-1.166908
 21
-1.166908
  0
LINE
  8
CONSTRUCTION
 10
0.611512
 11
0.559547
 20
-1.166908
 21
-1.03848
  0
LINE
  8
CONSTRUCTION
 10
0.559547
 11
0.966478
 20
-1.03848
 21
-1.03848
  0
LINE
  8
CONSTRUCTION
 10
0.966478
 11
0.914513
 20
-1.03848
 21
-1.166908
  0
LINE
  8
CONSTRUCTION
 10
0.914513
 11
1.018442
 20
-1.166908
 21
-1.166908
  0
LINE
  8
CONSTRUCTION
 10
1.018442
 11
0.966478
 20
-1.166908
 21
-1.03848
  0
LINE
  8
CONSTRUCTION
 10
0.966478
 11
1.373408
 20
-1.03848
 21
-1.03848
  0
LINE
  8
CONSTRUCTION
 10
1.373408
 11
1.321443
 20
-1.03848
 21
-1.166908
  0
LINE
  8
CONSTRUCTION
 10
1.321443
 11
1.425373
 20
-1.166908
 21
-1.166908
  0
LINE
  8
CONSTRUCTION
 10
1.425373
 11
1.373408
 20
-1.166908
 21
-1.03848
  0
LINE
  8
CONSTRUCTION
 10
1.373408
 11
1.780281
 20
-1.03848
 21
-1.038482
  0
LINE
  8
CONSTRUCTION
 10
1.780281
 11
1.728316
 20
-1.038482
 21
-1.166909
  0
LINE
  8
CONSTRUCTION
 10
1.728316
 11
1.832246
 20
-1.166909
 21
-1.166909
  0
LINE
  8
CONSTRUCTION
 10
1.832246
 11
1.780281
 20
-1.166909
 21
-1.038482
  0
LINE
  8
CONSTRUCTION
 10
0.0
 11
4.0
 20
-1.561751
 21
-1.561751
  0
TEXT
  8
TEXT
 10
0.10065
 20
-1.405784
 30
0.0
 40
0.224
 50
0.0
  1
DOVETAIL DESIGNS
  0
TEXT
  8
TEXT
 10
2.276036
 20
-1.551751
 30
0.0
 40
0.099
 50
0.0
  1
& MILLWORK INC.
  0
TEXT
  8
TEXT
 10
1.092458
 20
-1.640461
 30
0.0
 40
0.07
 50
0.0
  1
Established 1979
  0
TEXT
  8
TEXT
 10
0.1
 20
-1.8
 30
0.0
 40
0.1
 50
0.0
  1
Phone: (406) 248-5010    Website: www.dovetailmt.com
  0
TEXT
  8
TEXT
 10
0.0
 20
-0.65
 30
0.0
 40
0.1
 50
0.0
  1
(13/16"x5-5/32")
  0
TEXT
  8
TEXT
 10
0.0
 20
-0.5
 30
0.0
 40
0.1
 50
0.0
  1
3"x4-1/4"
  0
TEXT
  8
TEXT
 10
0.0
 20
-0.25
 30
0.0
 40
0.15625
 50
0.0
  1
CN156
  0
ENDSEC
  0
EOF
