  0
SECTION
  2
ENTITIES
  0
ARC
  8
APS_GEOMETRY
 10
2.023517
 20
4.373906
 40
0.75
 50
277.73
 51
7.73
  0
LINE
  8
APS_GEOMETRY
 10
2.766702
 11
2.952498
 20
4.474785
 21
4.500004
  0
LINE
  8
APS_GEOMETRY
 10
2.952498
 11
2.952498
 20
4.500004
 21
5.005183
  0
LINE
  8
APS_GEOMETRY
 10
2.952498
 11
2.381563
 20
5.005183
 21
5.005167
  0
LINE
  8
APS_GEOMETRY
 10
2.381563
 11
0.0
 20
5.005167
 21
0.880178
  0
LINE
  8
APS_GEOMETRY
 10
0.0
 11
0.0
 20
0.880178
 21
0.0
  0
LINE
  8
APS_GEOMETRY
 10
0.0
 11
0.311803
 20
0.0
 21
0.0
  0
LINE
  8
APS_GEOMETRY
 10
0.311803
 11
0.363972
 20
0.0
 21
0.16763
  0
ARC
  8
APS_GEOMETRY
 10
0.192127
 20
0.544983
 40
0.41464
 50
294.48433
 51
30.941838
  0
LINE
  8
APS_GEOMETRY
 10
0.547759
 11
0.619233
 20
0.758178
 21
0.987841
  0
LINE
  8
APS_GEOMETRY
 10
0.619233
 11
0.486963
 20
0.987841
 21
1.03296
  0
ARC
  8
APS_GEOMETRY
 10
6.911507
 20
-1.616701
 40
6.949494
 50
133.252418
 51
157.587382
  0
LINE
  8
APS_GEOMETRY
 10
2.149618
 11
2.124396
 20
3.444907
 21
3.630721
  0
LINE
  8
CONSTRUCTION
 10
0.152615
 11
0.10065
 20
-1.038482
 21
-1.166909
  0
LINE
  8
CONSTRUCTION
 10
0.10065
 11
0.20458
 20
-1.166909
 21
-1.166909
  0
LINE
  8
CONSTRUCTION
 10
0.20458
 11
0.152615
 20
-1.166909
 21
-1.038482
  0
LINE
  8
CONSTRUCTION
 10
0.152615
 11
0.559547
 20
-1.038482
 21
-1.03848
  0
LINE
  8
CONSTRUCTION
 10
0.559547
 11
0.507582
 20
-1.03848
 21
-1.166908
  0
LINE
  8
CONSTRUCTION
 10
0.507582
 11
0.611512
 20
-1.166908
 21
-1.166908
  0
LINE
  8
CONSTRUCTION
 10
0.611512
 11
0.559547
 20
-1.166908
 21
-1.03848
  0
LINE
  8
CONSTRUCTION
 10
0.559547
 11
0.966478
 20
-1.03848
 21
-1.03848
  0
LINE
  8
CONSTRUCTION
 10
0.966478
 11
0.914513
 20
-1.03848
 21
-1.166908
  0
LINE
  8
CONSTRUCTION
 10
0.914513
 11
1.018442
 20
-1.166908
 21
-1.166908
  0
LINE
  8
CONSTRUCTION
 10
1.018442
 11
0.966478
 20
-1.166908
 21
-1.03848
  0
LINE
  8
CONSTRUCTION
 10
0.966478
 11
1.373408
 20
-1.03848
 21
-1.03848
  0
LINE
  8
CONSTRUCTION
 10
1.373408
 11
1.321443
 20
-1.03848
 21
-1.166908
  0
LINE
  8
CONSTRUCTION
 10
1.321443
 11
1.425373
 20
-1.166908
 21
-1.166908
  0
LINE
  8
CONSTRUCTION
 10
1.425373
 11
1.373408
 20
-1.166908
 21
-1.03848
  0
LINE
  8
CONSTRUCTION
 10
1.373408
 11
1.780281
 20
-1.03848
 21
-1.038482
  0
LINE
  8
CONSTRUCTION
 10
1.780281
 11
1.728316
 20
-1.038482
 21
-1.166909
  0
LINE
  8
CONSTRUCTION
 10
1.728316
 11
1.832246
 20
-1.166909
 21
-1.166909
  0
LINE
  8
CONSTRUCTION
 10
1.832246
 11
1.780281
 20
-1.166909
 21
-1.038482
  0
LINE
  8
CONSTRUCTION
 10
0.0
 11
4.0
 20
-1.561751
 21
-1.561751
  0
TEXT
  8
TEXT
 10
0.10065
 20
-1.405784
 30
0.0
 40
0.224
 50
0.0
  1
DOVETAIL DESIGNS
  0
TEXT
  8
TEXT
 10
2.276036
 20
-1.551751
 30
0.0
 40
0.099
 50
0.0
  1
& MILLWORK INC.
  0
TEXT
  8
TEXT
 10
1.092458
 20
-1.640461
 30
0.0
 40
0.07
 50
0.0
  1
Established 1979
  0
TEXT
  8
TEXT
 10
0.1
 20
-1.8
 30
0.0
 40
0.1
 50
0.0
  1
Phone: (406) 248-5010    Website: www.dovetailmt.com
  0
TEXT
  8
TEXT
 10
0.0
 20
-0.65
 30
0.0
 40
0.1
 50
0.0
  1
(3/4"x5-13/16")
  0
TEXT
  8
TEXT
 10
0.0
 20
-0.5
 30
0.0
 40
0.1
 50
0.0
  1
2-15/16"x5"
  0
TEXT
  8
TEXT
 10
0.0
 20
-0.25
 30
0.0
 40
0.15625
 50
0.0
  1
CN148
  0
ENDSEC
  0
EOF
