  0
SECTION
  2
ENTITIES
  0
ARC
  8
APS_GEOMETRY
 10
2.641546
 20
2.560267
 40
0.119375
 50
302.722337
 51
351.467882
  0
ARC
  8
APS_GEOMETRY
 10
2.700573
 20
2.551407
 40
0.059687
 50
351.472484
 51
356.890046
  0
ARC
  8
APS_GEOMETRY
 10
2.563011
 20
2.558899
 40
0.197453
 50
356.884835
 51
28.406732
  0
ARC
  8
APS_GEOMETRY
 10
3.60977
 20
2.983325
 40
0.933539
 50
197.039343
 51
200.733446
  0
ARC
  8
APS_GEOMETRY
 10
2.843119
 20
2.74836
 40
0.13169
 50
74.081302
 51
197.039178
  0
ARC
  8
APS_GEOMETRY
 10
2.975401
 20
3.105953
 40
0.250173
 50
247.394432
 51
262.168987
  0
ARC
  8
APS_GEOMETRY
 10
2.987226
 20
3.191961
 40
0.33699
 50
262.169584
 51
274.449832
  0
ARC
  8
APS_GEOMETRY
 10
2.979225
 20
3.29486
 40
0.4402
 50
274.449005
 51
293.106218
  0
ARC
  8
APS_GEOMETRY
 10
2.894301
 20
3.493883
 40
0.656584
 50
293.106818
 51
307.989895
  0
ARC
  8
APS_GEOMETRY
 10
2.899021
 20
3.48785
 40
0.648924
 50
307.989364
 51
323.178552
  0
ARC
  8
APS_GEOMETRY
 10
3.052484
 20
3.372952
 40
0.457215
 50
323.178839
 51
342.275428
  0
LINE
  8
APS_GEOMETRY
 10
3.487995
 11
2.360597
 20
3.233757
 21
3.233757
  0
LINE
  8
APS_GEOMETRY
 10
2.360597
 11
0.0
 20
3.233757
 21
0.87316
  0
LINE
  8
APS_GEOMETRY
 10
0.0
 11
0.0
 20
0.87316
 21
0.0
  0
LINE
  8
APS_GEOMETRY
 10
0.0
 11
0.254238
 20
0.0
 21
0.0
  0
LINE
  8
APS_GEOMETRY
 10
0.254238
 11
0.254238
 20
0.0
 21
0.25
  0
LINE
  8
APS_GEOMETRY
 10
0.254238
 11
0.454238
 20
0.25
 21
0.25
  0
ARC
  8
APS_GEOMETRY
 10
3.117476
 20
-0.411874
 40
2.744251
 50
104.657973
 51
166.04347
  0
ARC
  8
APS_GEOMETRY
 10
1.979078
 20
2.288778
 40
0.446317
 50
354.120913
 51
25.437307
  0
LINE
  8
APS_GEOMETRY
 10
2.382127
 11
2.455453
 20
2.480481
 21
2.552486
  0
ARC
  8
APS_GEOMETRY
 10
3.008979
 20
3.157934
 40
0.820341
 50
227.565135
 51
235.317968
  0
ARC
  8
APS_GEOMETRY
 10
2.652516
 20
2.642781
 40
0.193883
 50
235.316388
 51
253.304926
  0
ARC
  8
APS_GEOMETRY
 10
2.648176
 20
2.587649
 40
0.140315
 50
248.5294
 51
294.371167
  0
LINE
  8
CONSTRUCTION
 10
0.152615
 11
0.10065
 20
-1.038482
 21
-1.166909
  0
LINE
  8
CONSTRUCTION
 10
0.10065
 11
0.20458
 20
-1.166909
 21
-1.166909
  0
LINE
  8
CONSTRUCTION
 10
0.20458
 11
0.152615
 20
-1.166909
 21
-1.038482
  0
LINE
  8
CONSTRUCTION
 10
0.152615
 11
0.559547
 20
-1.038482
 21
-1.03848
  0
LINE
  8
CONSTRUCTION
 10
0.559547
 11
0.507582
 20
-1.03848
 21
-1.166908
  0
LINE
  8
CONSTRUCTION
 10
0.507582
 11
0.611512
 20
-1.166908
 21
-1.166908
  0
LINE
  8
CONSTRUCTION
 10
0.611512
 11
0.559547
 20
-1.166908
 21
-1.03848
  0
LINE
  8
CONSTRUCTION
 10
0.559547
 11
0.966478
 20
-1.03848
 21
-1.03848
  0
LINE
  8
CONSTRUCTION
 10
0.966478
 11
0.914513
 20
-1.03848
 21
-1.166908
  0
LINE
  8
CONSTRUCTION
 10
0.914513
 11
1.018442
 20
-1.166908
 21
-1.166908
  0
LINE
  8
CONSTRUCTION
 10
1.018442
 11
0.966478
 20
-1.166908
 21
-1.03848
  0
LINE
  8
CONSTRUCTION
 10
0.966478
 11
1.373408
 20
-1.03848
 21
-1.03848
  0
LINE
  8
CONSTRUCTION
 10
1.373408
 11
1.321443
 20
-1.03848
 21
-1.166908
  0
LINE
  8
CONSTRUCTION
 10
1.321443
 11
1.425373
 20
-1.166908
 21
-1.166908
  0
LINE
  8
CONSTRUCTION
 10
1.425373
 11
1.373408
 20
-1.166908
 21
-1.03848
  0
LINE
  8
CONSTRUCTION
 10
1.373408
 11
1.780281
 20
-1.03848
 21
-1.038482
  0
LINE
  8
CONSTRUCTION
 10
1.780281
 11
1.728316
 20
-1.038482
 21
-1.166909
  0
LINE
  8
CONSTRUCTION
 10
1.728316
 11
1.832246
 20
-1.166909
 21
-1.166909
  0
LINE
  8
CONSTRUCTION
 10
1.832246
 11
1.780281
 20
-1.166909
 21
-1.038482
  0
LINE
  8
CONSTRUCTION
 10
0.0
 11
4.0
 20
-1.561751
 21
-1.561751
  0
TEXT
  8
TEXT
 10
0.10065
 20
-1.405784
 30
0.0
 40
0.224
 50
0.0
  1
DOVETAIL DESIGNS
  0
TEXT
  8
TEXT
 10
2.276036
 20
-1.551751
 30
0.0
 40
0.099
 50
0.0
  1
& MILLWORK INC.
  0
TEXT
  8
TEXT
 10
1.092458
 20
-1.640461
 30
0.0
 40
0.07
 50
0.0
  1
Established 1979
  0
TEXT
  8
TEXT
 10
0.1
 20
-1.8
 30
0.0
 40
0.1
 50
0.0
  1
Phone: (406) 248-5010    Website: www.dovetailmt.com
  0
TEXT
  8
TEXT
 10
0.0
 20
-0.25
 30
0.0
 40
0.15625
 50
0.0
  1
CN147
  0
TEXT
  8
TEXT
 10
0.0
 20
-0.5
 30
0.0
 40
0.1
 50
0.0
  1
3-1/2"x3-1/4"
  0
TEXT
  8
TEXT
 10
0.0
 20
-0.65
 30
0.0
 40
0.1
 50
0.0
  1
(3/4"x4-3/4")
  0
ENDSEC
  0
EOF
