  0
SECTION
  2
ENTITIES
  0
ARC
  8
APS_GEOMETRY
 10
0.605263
 20
0.594026
 40
0.015
 50
102.519407
 51
179.733365
  0
LINE
  8
APS_GEOMETRY
 10
0.590263
 11
0.589849
 20
0.594096
 21
0.505056
  0
LINE
  8
APS_GEOMETRY
 10
0.589849
 11
0.587048
 20
0.505056
 21
0.504631
  0
LINE
  8
APS_GEOMETRY
 10
0.587048
 11
0.58425
 20
0.504631
 21
0.504195
  0
LINE
  8
APS_GEOMETRY
 10
0.58425
 11
0.581454
 20
0.504195
 21
0.503746
  0
LINE
  8
APS_GEOMETRY
 10
0.581454
 11
0.578662
 20
0.503746
 21
0.503285
  0
LINE
  8
APS_GEOMETRY
 10
0.578662
 11
0.575873
 20
0.503285
 21
0.502813
  0
LINE
  8
APS_GEOMETRY
 10
0.575873
 11
0.573087
 20
0.502813
 21
0.502328
  0
LINE
  8
APS_GEOMETRY
 10
0.573087
 11
0.570305
 20
0.502328
 21
0.501831
  0
LINE
  8
APS_GEOMETRY
 10
0.570305
 11
0.567525
 20
0.501831
 21
0.501323
  0
LINE
  8
APS_GEOMETRY
 10
0.567525
 11
0.564749
 20
0.501323
 21
0.500802
  0
LINE
  8
APS_GEOMETRY
 10
0.564749
 11
0.561977
 20
0.500802
 21
0.50027
  0
LINE
  8
APS_GEOMETRY
 10
0.561977
 11
0.559208
 20
0.50027
 21
0.499726
  0
LINE
  8
APS_GEOMETRY
 10
0.559208
 11
0.556442
 20
0.499726
 21
0.499169
  0
LINE
  8
APS_GEOMETRY
 10
0.556442
 11
0.55368
 20
0.499169
 21
0.498601
  0
LINE
  8
APS_GEOMETRY
 10
0.55368
 11
0.550922
 20
0.498601
 21
0.498021
  0
LINE
  8
APS_GEOMETRY
 10
0.550922
 11
0.548167
 20
0.498021
 21
0.497428
  0
LINE
  8
APS_GEOMETRY
 10
0.548167
 11
0.545416
 20
0.497428
 21
0.496824
  0
LINE
  8
APS_GEOMETRY
 10
0.545416
 11
0.54267
 20
0.496824
 21
0.496208
  0
LINE
  8
APS_GEOMETRY
 10
0.54267
 11
0.539926
 20
0.496208
 21
0.49558
  0
LINE
  8
APS_GEOMETRY
 10
0.539926
 11
0.537187
 20
0.49558
 21
0.494939
  0
LINE
  8
APS_GEOMETRY
 10
0.537187
 11
0.534452
 20
0.494939
 21
0.494287
  0
LINE
  8
APS_GEOMETRY
 10
0.534452
 11
0.531721
 20
0.494287
 21
0.493623
  0
LINE
  8
APS_GEOMETRY
 10
0.531721
 11
0.528994
 20
0.493623
 21
0.492947
  0
LINE
  8
APS_GEOMETRY
 10
0.528994
 11
0.526272
 20
0.492947
 21
0.492259
  0
LINE
  8
APS_GEOMETRY
 10
0.526272
 11
0.523553
 20
0.492259
 21
0.491558
  0
LINE
  8
APS_GEOMETRY
 10
0.523553
 11
0.520839
 20
0.491558
 21
0.490846
  0
LINE
  8
APS_GEOMETRY
 10
0.520839
 11
0.518129
 20
0.490846
 21
0.490122
  0
LINE
  8
APS_GEOMETRY
 10
0.518129
 11
0.515424
 20
0.490122
 21
0.489386
  0
LINE
  8
APS_GEOMETRY
 10
0.515424
 11
0.512723
 20
0.489386
 21
0.488638
  0
LINE
  8
APS_GEOMETRY
 10
0.512723
 11
0.510027
 20
0.488638
 21
0.487877
  0
LINE
  8
APS_GEOMETRY
 10
0.510027
 11
0.507335
 20
0.487877
 21
0.487105
  0
LINE
  8
APS_GEOMETRY
 10
0.507335
 11
0.504648
 20
0.487105
 21
0.486321
  0
LINE
  8
APS_GEOMETRY
 10
0.504648
 11
0.501966
 20
0.486321
 21
0.485525
  0
LINE
  8
APS_GEOMETRY
 10
0.501966
 11
0.499289
 20
0.485525
 21
0.484717
  0
LINE
  8
APS_GEOMETRY
 10
0.499289
 11
0.496616
 20
0.484717
 21
0.483896
  0
LINE
  8
APS_GEOMETRY
 10
0.496616
 11
0.493948
 20
0.483896
 21
0.483064
  0
LINE
  8
APS_GEOMETRY
 10
0.493948
 11
0.491285
 20
0.483064
 21
0.48222
  0
LINE
  8
APS_GEOMETRY
 10
0.491285
 11
0.488628
 20
0.48222
 21
0.481363
  0
LINE
  8
APS_GEOMETRY
 10
0.488628
 11
0.485975
 20
0.481363
 21
0.480495
  0
LINE
  8
APS_GEOMETRY
 10
0.485975
 11
0.483327
 20
0.480495
 21
0.479615
  0
LINE
  8
APS_GEOMETRY
 10
0.483327
 11
0.480685
 20
0.479615
 21
0.478722
  0
LINE
  8
APS_GEOMETRY
 10
0.480685
 11
0.478048
 20
0.478722
 21
0.477818
  0
LINE
  8
APS_GEOMETRY
 10
0.478048
 11
0.475416
 20
0.477818
 21
0.476901
  0
LINE
  8
APS_GEOMETRY
 10
0.475416
 11
0.47279
 20
0.476901
 21
0.475973
  0
LINE
  8
APS_GEOMETRY
 10
0.47279
 11
0.470169
 20
0.475973
 21
0.475032
  0
LINE
  8
APS_GEOMETRY
 10
0.470169
 11
0.467554
 20
0.475032
 21
0.474079
  0
LINE
  8
APS_GEOMETRY
 10
0.467554
 11
0.464944
 20
0.474079
 21
0.473115
  0
LINE
  8
APS_GEOMETRY
 10
0.464944
 11
0.46234
 20
0.473115
 21
0.472138
  0
LINE
  8
APS_GEOMETRY
 10
0.46234
 11
0.459741
 20
0.472138
 21
0.471149
  0
LINE
  8
APS_GEOMETRY
 10
0.459741
 11
0.457148
 20
0.471149
 21
0.470148
  0
LINE
  8
APS_GEOMETRY
 10
0.457148
 11
0.454561
 20
0.470148
 21
0.469135
  0
LINE
  8
APS_GEOMETRY
 10
0.454561
 11
0.45198
 20
0.469135
 21
0.468111
  0
LINE
  8
APS_GEOMETRY
 10
0.45198
 11
0.449405
 20
0.468111
 21
0.467074
  0
LINE
  8
APS_GEOMETRY
 10
0.449405
 11
0.446836
 20
0.467074
 21
0.466024
  0
LINE
  8
APS_GEOMETRY
 10
0.446836
 11
0.444272
 20
0.466024
 21
0.464963
  0
LINE
  8
APS_GEOMETRY
 10
0.444272
 11
0.441715
 20
0.464963
 21
0.46389
  0
LINE
  8
APS_GEOMETRY
 10
0.441715
 11
0.439164
 20
0.46389
 21
0.462805
  0
LINE
  8
APS_GEOMETRY
 10
0.439164
 11
0.436619
 20
0.462805
 21
0.461707
  0
LINE
  8
APS_GEOMETRY
 10
0.436619
 11
0.434081
 20
0.461707
 21
0.460598
  0
LINE
  8
APS_GEOMETRY
 10
0.434081
 11
0.431549
 20
0.460598
 21
0.459476
  0
LINE
  8
APS_GEOMETRY
 10
0.431549
 11
0.429023
 20
0.459476
 21
0.458343
  0
LINE
  8
APS_GEOMETRY
 10
0.429023
 11
0.426504
 20
0.458343
 21
0.457197
  0
LINE
  8
APS_GEOMETRY
 10
0.426504
 11
0.423991
 20
0.457197
 21
0.456039
  0
LINE
  8
APS_GEOMETRY
 10
0.423991
 11
0.421485
 20
0.456039
 21
0.45487
  0
LINE
  8
APS_GEOMETRY
 10
0.421485
 11
0.418985
 20
0.45487
 21
0.453688
  0
LINE
  8
APS_GEOMETRY
 10
0.418985
 11
0.416492
 20
0.453688
 21
0.452494
  0
LINE
  8
APS_GEOMETRY
 10
0.416492
 11
0.414006
 20
0.452494
 21
0.451288
  0
LINE
  8
APS_GEOMETRY
 10
0.414006
 11
0.411527
 20
0.451288
 21
0.450069
  0
LINE
  8
APS_GEOMETRY
 10
0.411527
 11
0.409054
 20
0.450069
 21
0.448839
  0
LINE
  8
APS_GEOMETRY
 10
0.409054
 11
0.406588
 20
0.448839
 21
0.447597
  0
LINE
  8
APS_GEOMETRY
 10
0.406588
 11
0.40413
 20
0.447597
 21
0.446342
  0
LINE
  8
APS_GEOMETRY
 10
0.40413
 11
0.401678
 20
0.446342
 21
0.445075
  0
LINE
  8
APS_GEOMETRY
 10
0.401678
 11
0.399234
 20
0.445075
 21
0.443797
  0
LINE
  8
APS_GEOMETRY
 10
0.399234
 11
0.396797
 20
0.443797
 21
0.442506
  0
LINE
  8
APS_GEOMETRY
 10
0.396797
 11
0.394367
 20
0.442506
 21
0.441203
  0
LINE
  8
APS_GEOMETRY
 10
0.394367
 11
0.391944
 20
0.441203
 21
0.439888
  0
LINE
  8
APS_GEOMETRY
 10
0.391944
 11
0.389528
 20
0.439888
 21
0.438561
  0
LINE
  8
APS_GEOMETRY
 10
0.389528
 11
0.38712
 20
0.438561
 21
0.437221
  0
LINE
  8
APS_GEOMETRY
 10
0.38712
 11
0.38472
 20
0.437221
 21
0.43587
  0
LINE
  8
APS_GEOMETRY
 10
0.38472
 11
0.382327
 20
0.43587
 21
0.434506
  0
LINE
  8
APS_GEOMETRY
 10
0.382327
 11
0.379941
 20
0.434506
 21
0.433131
  0
LINE
  8
APS_GEOMETRY
 10
0.379941
 11
0.377564
 20
0.433131
 21
0.431743
  0
LINE
  8
APS_GEOMETRY
 10
0.377564
 11
0.375193
 20
0.431743
 21
0.430343
  0
LINE
  8
APS_GEOMETRY
 10
0.375193
 11
0.372831
 20
0.430343
 21
0.428931
  0
LINE
  8
APS_GEOMETRY
 10
0.372831
 11
0.370477
 20
0.428931
 21
0.427507
  0
LINE
  8
APS_GEOMETRY
 10
0.370477
 11
0.36813
 20
0.427507
 21
0.42607
  0
LINE
  8
APS_GEOMETRY
 10
0.36813
 11
0.365791
 20
0.42607
 21
0.424622
  0
LINE
  8
APS_GEOMETRY
 10
0.365791
 11
0.363461
 20
0.424622
 21
0.423161
  0
LINE
  8
APS_GEOMETRY
 10
0.363461
 11
0.361138
 20
0.423161
 21
0.421689
  0
LINE
  8
APS_GEOMETRY
 10
0.361138
 11
0.358823
 20
0.421689
 21
0.420204
  0
LINE
  8
APS_GEOMETRY
 10
0.358823
 11
0.356517
 20
0.420204
 21
0.418707
  0
LINE
  8
APS_GEOMETRY
 10
0.356517
 11
0.354219
 20
0.418707
 21
0.417197
  0
LINE
  8
APS_GEOMETRY
 10
0.354219
 11
0.351929
 20
0.417197
 21
0.415676
  0
LINE
  8
APS_GEOMETRY
 10
0.351929
 11
0.349647
 20
0.415676
 21
0.414142
  0
LINE
  8
APS_GEOMETRY
 10
0.349647
 11
0.347374
 20
0.414142
 21
0.412597
  0
LINE
  8
APS_GEOMETRY
 10
0.347374
 11
0.34511
 20
0.412597
 21
0.411039
  0
LINE
  8
APS_GEOMETRY
 10
0.34511
 11
0.342854
 20
0.411039
 21
0.409469
  0
LINE
  8
APS_GEOMETRY
 10
0.342854
 11
0.340606
 20
0.409469
 21
0.407887
  0
LINE
  8
APS_GEOMETRY
 10
0.340606
 11
0.338367
 20
0.407887
 21
0.406292
  0
LINE
  8
APS_GEOMETRY
 10
0.338367
 11
0.336137
 20
0.406292
 21
0.404686
  0
LINE
  8
APS_GEOMETRY
 10
0.336137
 11
0.333916
 20
0.404686
 21
0.403067
  0
LINE
  8
APS_GEOMETRY
 10
0.333916
 11
0.331703
 20
0.403067
 21
0.401436
  0
LINE
  8
APS_GEOMETRY
 10
0.331703
 11
0.3295
 20
0.401436
 21
0.399793
  0
LINE
  8
APS_GEOMETRY
 10
0.3295
 11
0.327305
 20
0.399793
 21
0.398138
  0
LINE
  8
APS_GEOMETRY
 10
0.327305
 11
0.325119
 20
0.398138
 21
0.396471
  0
LINE
  8
APS_GEOMETRY
 10
0.325119
 11
0.322943
 20
0.396471
 21
0.394791
  0
LINE
  8
APS_GEOMETRY
 10
0.322943
 11
0.320775
 20
0.394791
 21
0.393099
  0
LINE
  8
APS_GEOMETRY
 10
0.320775
 11
0.318617
 20
0.393099
 21
0.391395
  0
LINE
  8
APS_GEOMETRY
 10
0.318617
 11
0.316468
 20
0.391395
 21
0.389679
  0
LINE
  8
APS_GEOMETRY
 10
0.316468
 11
0.314328
 20
0.389679
 21
0.387951
  0
LINE
  8
APS_GEOMETRY
 10
0.314328
 11
0.312198
 20
0.387951
 21
0.38621
  0
LINE
  8
APS_GEOMETRY
 10
0.312198
 11
0.310077
 20
0.38621
 21
0.384458
  0
LINE
  8
APS_GEOMETRY
 10
0.310077
 11
0.307965
 20
0.384458
 21
0.382693
  0
LINE
  8
APS_GEOMETRY
 10
0.307965
 11
0.305863
 20
0.382693
 21
0.380916
  0
LINE
  8
APS_GEOMETRY
 10
0.305863
 11
0.303771
 20
0.380916
 21
0.379126
  0
LINE
  8
APS_GEOMETRY
 10
0.303771
 11
0.301688
 20
0.379126
 21
0.377325
  0
LINE
  8
APS_GEOMETRY
 10
0.301688
 11
0.299615
 20
0.377325
 21
0.375511
  0
LINE
  8
APS_GEOMETRY
 10
0.299615
 11
0.297552
 20
0.375511
 21
0.373685
  0
LINE
  8
APS_GEOMETRY
 10
0.297552
 11
0.295499
 20
0.373685
 21
0.371847
  0
LINE
  8
APS_GEOMETRY
 10
0.295499
 11
0.293455
 20
0.371847
 21
0.369997
  0
LINE
  8
APS_GEOMETRY
 10
0.293455
 11
0.291422
 20
0.369997
 21
0.368134
  0
LINE
  8
APS_GEOMETRY
 10
0.291422
 11
0.289398
 20
0.368134
 21
0.366259
  0
LINE
  8
APS_GEOMETRY
 10
0.289398
 11
0.287385
 20
0.366259
 21
0.364372
  0
LINE
  8
APS_GEOMETRY
 10
0.287385
 11
0.285382
 20
0.364372
 21
0.362473
  0
LINE
  8
APS_GEOMETRY
 10
0.285382
 11
0.283389
 20
0.362473
 21
0.360561
  0
LINE
  8
APS_GEOMETRY
 10
0.283389
 11
0.281406
 20
0.360561
 21
0.358638
  0
LINE
  8
APS_GEOMETRY
 10
0.281406
 11
0.279434
 20
0.358638
 21
0.356702
  0
LINE
  8
APS_GEOMETRY
 10
0.279434
 11
0.277471
 20
0.356702
 21
0.354753
  0
LINE
  8
APS_GEOMETRY
 10
0.277471
 11
0.27552
 20
0.354753
 21
0.352793
  0
LINE
  8
APS_GEOMETRY
 10
0.27552
 11
0.273579
 20
0.352793
 21
0.35082
  0
LINE
  8
APS_GEOMETRY
 10
0.273579
 11
0.271648
 20
0.35082
 21
0.348835
  0
LINE
  8
APS_GEOMETRY
 10
0.271648
 11
0.269728
 20
0.348835
 21
0.346838
  0
LINE
  8
APS_GEOMETRY
 10
0.269728
 11
0.267819
 20
0.346838
 21
0.344829
  0
LINE
  8
APS_GEOMETRY
 10
0.267819
 11
0.26592
 20
0.344829
 21
0.342807
  0
LINE
  8
APS_GEOMETRY
 10
0.26592
 11
0.264032
 20
0.342807
 21
0.340773
  0
LINE
  8
APS_GEOMETRY
 10
0.264032
 11
0.262155
 20
0.340773
 21
0.338727
  0
LINE
  8
APS_GEOMETRY
 10
0.262155
 11
0.260289
 20
0.338727
 21
0.336669
  0
LINE
  8
APS_GEOMETRY
 10
0.260289
 11
0.258434
 20
0.336669
 21
0.334598
  0
LINE
  8
APS_GEOMETRY
 10
0.258434
 11
0.25659
 20
0.334598
 21
0.332515
  0
LINE
  8
APS_GEOMETRY
 10
0.25659
 11
0.254757
 20
0.332515
 21
0.33042
  0
LINE
  8
APS_GEOMETRY
 10
0.254757
 11
0.252935
 20
0.33042
 21
0.328312
  0
LINE
  8
APS_GEOMETRY
 10
0.252935
 11
0.251125
 20
0.328312
 21
0.326193
  0
LINE
  8
APS_GEOMETRY
 10
0.251125
 11
0.249325
 20
0.326193
 21
0.324061
  0
LINE
  8
APS_GEOMETRY
 10
0.249325
 11
0.247537
 20
0.324061
 21
0.321916
  0
LINE
  8
APS_GEOMETRY
 10
0.247537
 11
0.24576
 20
0.321916
 21
0.31976
  0
LINE
  8
APS_GEOMETRY
 10
0.24576
 11
0.243995
 20
0.31976
 21
0.317591
  0
LINE
  8
APS_GEOMETRY
 10
0.243995
 11
0.242242
 20
0.317591
 21
0.31541
  0
LINE
  8
APS_GEOMETRY
 10
0.242242
 11
0.240499
 20
0.31541
 21
0.313216
  0
LINE
  8
APS_GEOMETRY
 10
0.240499
 11
0.238769
 20
0.313216
 21
0.311011
  0
LINE
  8
APS_GEOMETRY
 10
0.238769
 11
0.23705
 20
0.311011
 21
0.308793
  0
LINE
  8
APS_GEOMETRY
 10
0.23705
 11
0.235343
 20
0.308793
 21
0.306562
  0
LINE
  8
APS_GEOMETRY
 10
0.235343
 11
0.233648
 20
0.306562
 21
0.30432
  0
LINE
  8
APS_GEOMETRY
 10
0.233648
 11
0.231964
 20
0.30432
 21
0.302065
  0
LINE
  8
APS_GEOMETRY
 10
0.231964
 11
0.230293
 20
0.302065
 21
0.299798
  0
LINE
  8
APS_GEOMETRY
 10
0.230293
 11
0.228633
 20
0.299798
 21
0.297519
  0
LINE
  8
APS_GEOMETRY
 10
0.228633
 11
0.226986
 20
0.297519
 21
0.295227
  0
LINE
  8
APS_GEOMETRY
 10
0.226986
 11
0.22535
 20
0.295227
 21
0.292923
  0
LINE
  8
APS_GEOMETRY
 10
0.22535
 11
0.223727
 20
0.292923
 21
0.290607
  0
LINE
  8
APS_GEOMETRY
 10
0.223727
 11
0.222116
 20
0.290607
 21
0.288278
  0
LINE
  8
APS_GEOMETRY
 10
0.222116
 11
0.220517
 20
0.288278
 21
0.285937
  0
LINE
  8
APS_GEOMETRY
 10
0.220517
 11
0.218931
 20
0.285937
 21
0.283584
  0
LINE
  8
APS_GEOMETRY
 10
0.218931
 11
0.217357
 20
0.283584
 21
0.281218
  0
LINE
  8
APS_GEOMETRY
 10
0.217357
 11
0.215795
 20
0.281218
 21
0.27884
  0
LINE
  8
APS_GEOMETRY
 10
0.215795
 11
0.214246
 20
0.27884
 21
0.27645
  0
LINE
  8
APS_GEOMETRY
 10
0.214246
 11
0.21271
 20
0.27645
 21
0.274048
  0
LINE
  8
APS_GEOMETRY
 10
0.21271
 11
0.211186
 20
0.274048
 21
0.271633
  0
LINE
  8
APS_GEOMETRY
 10
0.211186
 11
0.209675
 20
0.271633
 21
0.269206
  0
LINE
  8
APS_GEOMETRY
 10
0.209675
 11
0.208176
 20
0.269206
 21
0.266766
  0
LINE
  8
APS_GEOMETRY
 10
0.208176
 11
0.206691
 20
0.266766
 21
0.264314
  0
LINE
  8
APS_GEOMETRY
 10
0.206691
 11
0.205218
 20
0.264314
 21
0.26185
  0
LINE
  8
APS_GEOMETRY
 10
0.205218
 11
0.203758
 20
0.26185
 21
0.259374
  0
LINE
  8
APS_GEOMETRY
 10
0.203758
 11
0.202312
 20
0.259374
 21
0.256885
  0
LINE
  8
APS_GEOMETRY
 10
0.202312
 11
0.200878
 20
0.256885
 21
0.254384
  0
LINE
  8
APS_GEOMETRY
 10
0.200878
 11
0.199457
 20
0.254384
 21
0.25187
  0
LINE
  8
APS_GEOMETRY
 10
0.199457
 11
0.19805
 20
0.25187
 21
0.249344
  0
LINE
  8
APS_GEOMETRY
 10
0.19805
 11
0.196656
 20
0.249344
 21
0.246806
  0
LINE
  8
APS_GEOMETRY
 10
0.196656
 11
0.195275
 20
0.246806
 21
0.244256
  0
LINE
  8
APS_GEOMETRY
 10
0.195275
 11
0.193907
 20
0.244256
 21
0.241693
  0
LINE
  8
APS_GEOMETRY
 10
0.193907
 11
0.192553
 20
0.241693
 21
0.239117
  0
LINE
  8
APS_GEOMETRY
 10
0.192553
 11
0.191212
 20
0.239117
 21
0.23653
  0
LINE
  8
APS_GEOMETRY
 10
0.191212
 11
0.189885
 20
0.23653
 21
0.23393
  0
LINE
  8
APS_GEOMETRY
 10
0.189885
 11
0.188571
 20
0.23393
 21
0.231318
  0
LINE
  8
APS_GEOMETRY
 10
0.188571
 11
0.187271
 20
0.231318
 21
0.228693
  0
LINE
  8
APS_GEOMETRY
 10
0.187271
 11
0.185985
 20
0.228693
 21
0.226056
  0
LINE
  8
APS_GEOMETRY
 10
0.185985
 11
0.184712
 20
0.226056
 21
0.223406
  0
LINE
  8
APS_GEOMETRY
 10
0.184712
 11
0.183454
 20
0.223406
 21
0.220745
  0
LINE
  8
APS_GEOMETRY
 10
0.183454
 11
0.182209
 20
0.220745
 21
0.21807
  0
LINE
  8
APS_GEOMETRY
 10
0.182209
 11
0.180978
 20
0.21807
 21
0.215384
  0
LINE
  8
APS_GEOMETRY
 10
0.180978
 11
0.179761
 20
0.215384
 21
0.212685
  0
LINE
  8
APS_GEOMETRY
 10
0.179761
 11
0.178558
 20
0.212685
 21
0.209974
  0
LINE
  8
APS_GEOMETRY
 10
0.178558
 11
0.17737
 20
0.209974
 21
0.20725
  0
LINE
  8
APS_GEOMETRY
 10
0.17737
 11
0.176195
 20
0.20725
 21
0.204514
  0
LINE
  8
APS_GEOMETRY
 10
0.176195
 11
0.175035
 20
0.204514
 21
0.201766
  0
LINE
  8
APS_GEOMETRY
 10
0.175035
 11
0.173889
 20
0.201766
 21
0.199005
  0
LINE
  8
APS_GEOMETRY
 10
0.173889
 11
0.172757
 20
0.199005
 21
0.196232
  0
LINE
  8
APS_GEOMETRY
 10
0.172757
 11
0.17164
 20
0.196232
 21
0.193446
  0
LINE
  8
APS_GEOMETRY
 10
0.17164
 11
0.170537
 20
0.193446
 21
0.190648
  0
LINE
  8
APS_GEOMETRY
 10
0.170537
 11
0.169449
 20
0.190648
 21
0.187838
  0
LINE
  8
APS_GEOMETRY
 10
0.169449
 11
0.168376
 20
0.187838
 21
0.185015
  0
LINE
  8
APS_GEOMETRY
 10
0.168376
 11
0.167317
 20
0.185015
 21
0.18218
  0
LINE
  8
APS_GEOMETRY
 10
0.167317
 11
0.166272
 20
0.18218
 21
0.179332
  0
LINE
  8
APS_GEOMETRY
 10
0.166272
 11
0.165243
 20
0.179332
 21
0.176472
  0
LINE
  8
APS_GEOMETRY
 10
0.165243
 11
0.164228
 20
0.176472
 21
0.1736
  0
LINE
  8
APS_GEOMETRY
 10
0.164228
 11
0.163229
 20
0.1736
 21
0.170715
  0
LINE
  8
APS_GEOMETRY
 10
0.163229
 11
0.162244
 20
0.170715
 21
0.167818
  0
LINE
  8
APS_GEOMETRY
 10
0.162244
 11
0.161274
 20
0.167818
 21
0.164908
  0
LINE
  8
APS_GEOMETRY
 10
0.161274
 11
0.160319
 20
0.164908
 21
0.161986
  0
LINE
  8
APS_GEOMETRY
 10
0.160319
 11
0.15938
 20
0.161986
 21
0.159052
  0
LINE
  8
APS_GEOMETRY
 10
0.15938
 11
0.158455
 20
0.159052
 21
0.156105
  0
LINE
  8
APS_GEOMETRY
 10
0.158455
 11
0.157546
 20
0.156105
 21
0.153145
  0
LINE
  8
APS_GEOMETRY
 10
0.157546
 11
0.156652
 20
0.153145
 21
0.150174
  0
LINE
  8
APS_GEOMETRY
 10
0.156652
 11
0.155774
 20
0.150174
 21
0.147189
  0
LINE
  8
APS_GEOMETRY
 10
0.155774
 11
0.154911
 20
0.147189
 21
0.144193
  0
LINE
  8
APS_GEOMETRY
 10
0.154911
 11
0.154063
 20
0.144193
 21
0.141184
  0
LINE
  8
APS_GEOMETRY
 10
0.154063
 11
0.153231
 20
0.141184
 21
0.138162
  0
LINE
  8
APS_GEOMETRY
 10
0.153231
 11
0.152415
 20
0.138162
 21
0.135128
  0
LINE
  8
APS_GEOMETRY
 10
0.152415
 11
0.151614
 20
0.135128
 21
0.132082
  0
LINE
  8
APS_GEOMETRY
 10
0.151614
 11
0.150829
 20
0.132082
 21
0.129023
  0
LINE
  8
APS_GEOMETRY
 10
0.150829
 11
0.15006
 20
0.129023
 21
0.125952
  0
LINE
  8
APS_GEOMETRY
 10
0.15006
 11
0.149307
 20
0.125952
 21
0.122868
  0
LINE
  8
APS_GEOMETRY
 10
0.149307
 11
0.148569
 20
0.122868
 21
0.119772
  0
LINE
  8
APS_GEOMETRY
 10
0.148569
 11
0.147848
 20
0.119772
 21
0.116664
  0
LINE
  8
APS_GEOMETRY
 10
0.147848
 11
0.147142
 20
0.116664
 21
0.113543
  0
LINE
  8
APS_GEOMETRY
 10
0.147142
 11
0.146453
 20
0.113543
 21
0.110409
  0
LINE
  8
APS_GEOMETRY
 10
0.146453
 11
0.145779
 20
0.110409
 21
0.107263
  0
LINE
  8
APS_GEOMETRY
 10
0.145779
 11
0.145122
 20
0.107263
 21
0.104105
  0
LINE
  8
APS_GEOMETRY
 10
0.145122
 11
0.144481
 20
0.104105
 21
0.100934
  0
LINE
  8
APS_GEOMETRY
 10
0.144481
 11
0.143857
 20
0.100934
 21
0.09775
  0
LINE
  8
APS_GEOMETRY
 10
0.143857
 11
0.143249
 20
0.09775
 21
0.094555
  0
LINE
  8
APS_GEOMETRY
 10
0.143249
 11
0.142657
 20
0.094555
 21
0.091346
  0
LINE
  8
APS_GEOMETRY
 10
0.142657
 11
0.142082
 20
0.091346
 21
0.088125
  0
LINE
  8
APS_GEOMETRY
 10
0.142082
 11
0.141523
 20
0.088125
 21
0.084892
  0
LINE
  8
APS_GEOMETRY
 10
0.141523
 11
0.140981
 20
0.084892
 21
0.081647
  0
LINE
  8
APS_GEOMETRY
 10
0.140981
 11
0.140456
 20
0.081647
 21
0.078388
  0
LINE
  8
APS_GEOMETRY
 10
0.140456
 11
0.139947
 20
0.078388
 21
0.075118
  0
LINE
  8
APS_GEOMETRY
 10
0.139947
 11
0.139456
 20
0.075118
 21
0.071834
  0
LINE
  8
APS_GEOMETRY
 10
0.139456
 11
0.138981
 20
0.071834
 21
0.068539
  0
LINE
  8
APS_GEOMETRY
 10
0.138981
 11
0.138523
 20
0.068539
 21
0.065231
  0
LINE
  8
APS_GEOMETRY
 10
0.138523
 11
0.138081
 20
0.065231
 21
0.06191
  0
LINE
  8
APS_GEOMETRY
 10
0.138081
 11
0.137657
 20
0.06191
 21
0.058577
  0
LINE
  8
APS_GEOMETRY
 10
0.137657
 11
0.13725
 20
0.058577
 21
0.055231
  0
LINE
  8
APS_GEOMETRY
 10
0.13725
 11
0.136861
 20
0.055231
 21
0.051873
  0
LINE
  8
APS_GEOMETRY
 10
0.136861
 11
0.136488
 20
0.051873
 21
0.048503
  0
LINE
  8
APS_GEOMETRY
 10
0.136488
 11
0.136133
 20
0.048503
 21
0.045119
  0
LINE
  8
APS_GEOMETRY
 10
0.136133
 11
0.135795
 20
0.045119
 21
0.041724
  0
LINE
  8
APS_GEOMETRY
 10
0.135795
 11
0.135474
 20
0.041724
 21
0.038316
  0
LINE
  8
APS_GEOMETRY
 10
0.135474
 11
0.135171
 20
0.038316
 21
0.034895
  0
LINE
  8
APS_GEOMETRY
 10
0.135171
 11
0.134885
 20
0.034895
 21
0.031462
  0
LINE
  8
APS_GEOMETRY
 10
0.134885
 11
0.134617
 20
0.031462
 21
0.028016
  0
LINE
  8
APS_GEOMETRY
 10
0.134617
 11
0.134367
 20
0.028016
 21
0.024558
  0
LINE
  8
APS_GEOMETRY
 10
0.134367
 11
0.134134
 20
0.024558
 21
0.021087
  0
LINE
  8
APS_GEOMETRY
 10
0.134134
 11
0.133919
 20
0.021087
 21
0.017604
  0
LINE
  8
APS_GEOMETRY
 10
0.133919
 11
0.133722
 20
0.017604
 21
0.014108
  0
LINE
  8
APS_GEOMETRY
 10
0.133722
 11
0.133542
 20
0.014108
 21
0.0106
  0
LINE
  8
APS_GEOMETRY
 10
0.133542
 11
0.133381
 20
0.0106
 21
0.007079
  0
LINE
  8
APS_GEOMETRY
 10
0.133381
 11
0.133238
 20
0.007079
 21
0.003546
  0
LINE
  8
APS_GEOMETRY
 10
0.133238
 11
0.133112
 20
0.003546
 21
0.0
  0
LINE
  8
APS_GEOMETRY
 10
0.133112
 11
0.0
 20
0.0
 21
0.010206
  0
LINE
  8
APS_GEOMETRY
 10
0.0
 11
0.0
 20
0.010206
 21
0.568068
  0
LINE
  8
APS_GEOMETRY
 10
0.0
 11
0.443903
 20
0.568068
 21
1.027696
  0
LINE
  8
APS_GEOMETRY
 10
0.443903
 11
0.997167
 20
1.027696
 21
1.066348
  0
LINE
  8
APS_GEOMETRY
 10
0.997167
 11
0.996615
 20
1.066348
 21
1.062461
  0
LINE
  8
APS_GEOMETRY
 10
0.996615
 11
0.996165
 20
1.062461
 21
1.059372
  0
LINE
  8
APS_GEOMETRY
 10
0.996165
 11
0.995706
 20
1.059372
 21
1.056294
  0
LINE
  8
APS_GEOMETRY
 10
0.995706
 11
0.995239
 20
1.056294
 21
1.053228
  0
LINE
  8
APS_GEOMETRY
 10
0.995239
 11
0.994764
 20
1.053228
 21
1.050172
  0
LINE
  8
APS_GEOMETRY
 10
0.994764
 11
0.99428
 20
1.050172
 21
1.047127
  0
LINE
  8
APS_GEOMETRY
 10
0.99428
 11
0.993788
 20
1.047127
 21
1.044093
  0
LINE
  8
APS_GEOMETRY
 10
0.993788
 11
0.993289
 20
1.044093
 21
1.041069
  0
LINE
  8
APS_GEOMETRY
 10
0.993289
 11
0.99278
 20
1.041069
 21
1.038057
  0
LINE
  8
APS_GEOMETRY
 10
0.99278
 11
0.992264
 20
1.038057
 21
1.035055
  0
LINE
  8
APS_GEOMETRY
 10
0.992264
 11
0.991739
 20
1.035055
 21
1.032064
  0
LINE
  8
APS_GEOMETRY
 10
0.991739
 11
0.991206
 20
1.032064
 21
1.029084
  0
LINE
  8
APS_GEOMETRY
 10
0.991206
 11
0.990665
 20
1.029084
 21
1.026115
  0
LINE
  8
APS_GEOMETRY
 10
0.990665
 11
0.990116
 20
1.026115
 21
1.023157
  0
LINE
  8
APS_GEOMETRY
 10
0.990116
 11
0.989558
 20
1.023157
 21
1.020209
  0
LINE
  8
APS_GEOMETRY
 10
0.989558
 11
0.988992
 20
1.020209
 21
1.017273
  0
LINE
  8
APS_GEOMETRY
 10
0.988992
 11
0.988417
 20
1.017273
 21
1.014347
  0
LINE
  8
APS_GEOMETRY
 10
0.988417
 11
0.987835
 20
1.014347
 21
1.011432
  0
LINE
  8
APS_GEOMETRY
 10
0.987835
 11
0.987244
 20
1.011432
 21
1.008527
  0
LINE
  8
APS_GEOMETRY
 10
0.987244
 11
0.986644
 20
1.008527
 21
1.005634
  0
LINE
  8
APS_GEOMETRY
 10
0.986644
 11
0.986037
 20
1.005634
 21
1.002751
  0
LINE
  8
APS_GEOMETRY
 10
0.986037
 11
0.985421
 20
1.002751
 21
0.999879
  0
LINE
  8
APS_GEOMETRY
 10
0.985421
 11
0.984796
 20
0.999879
 21
0.997017
  0
LINE
  8
APS_GEOMETRY
 10
0.984796
 11
0.984164
 20
0.997017
 21
0.994167
  0
LINE
  8
APS_GEOMETRY
 10
0.984164
 11
0.983523
 20
0.994167
 21
0.991327
  0
LINE
  8
APS_GEOMETRY
 10
0.983523
 11
0.982873
 20
0.991327
 21
0.988498
  0
LINE
  8
APS_GEOMETRY
 10
0.982873
 11
0.982216
 20
0.988498
 21
0.985679
  0
LINE
  8
APS_GEOMETRY
 10
0.982216
 11
0.98155
 20
0.985679
 21
0.982872
  0
LINE
  8
APS_GEOMETRY
 10
0.98155
 11
0.980875
 20
0.982872
 21
0.980075
  0
LINE
  8
APS_GEOMETRY
 10
0.980875
 11
0.980192
 20
0.980075
 21
0.977288
  0
LINE
  8
APS_GEOMETRY
 10
0.980192
 11
0.979501
 20
0.977288
 21
0.974513
  0
LINE
  8
APS_GEOMETRY
 10
0.979501
 11
0.978802
 20
0.974513
 21
0.971748
  0
LINE
  8
APS_GEOMETRY
 10
0.978802
 11
0.978094
 20
0.971748
 21
0.968994
  0
LINE
  8
APS_GEOMETRY
 10
0.978094
 11
0.977377
 20
0.968994
 21
0.96625
  0
LINE
  8
APS_GEOMETRY
 10
0.977377
 11
0.976652
 20
0.96625
 21
0.963517
  0
LINE
  8
APS_GEOMETRY
 10
0.976652
 11
0.975919
 20
0.963517
 21
0.960795
  0
LINE
  8
APS_GEOMETRY
 10
0.975919
 11
0.975178
 20
0.960795
 21
0.958083
  0
LINE
  8
APS_GEOMETRY
 10
0.975178
 11
0.974428
 20
0.958083
 21
0.955382
  0
LINE
  8
APS_GEOMETRY
 10
0.974428
 11
0.973669
 20
0.955382
 21
0.952692
  0
LINE
  8
APS_GEOMETRY
 10
0.973669
 11
0.972902
 20
0.952692
 21
0.950012
  0
LINE
  8
APS_GEOMETRY
 10
0.972902
 11
0.972127
 20
0.950012
 21
0.947343
  0
LINE
  8
APS_GEOMETRY
 10
0.972127
 11
0.971343
 20
0.947343
 21
0.944685
  0
LINE
  8
APS_GEOMETRY
 10
0.971343
 11
0.970551
 20
0.944685
 21
0.942037
  0
LINE
  8
APS_GEOMETRY
 10
0.970551
 11
0.96975
 20
0.942037
 21
0.9394
  0
LINE
  8
APS_GEOMETRY
 10
0.96975
 11
0.968941
 20
0.9394
 21
0.936773
  0
LINE
  8
APS_GEOMETRY
 10
0.968941
 11
0.968123
 20
0.936773
 21
0.934157
  0
LINE
  8
APS_GEOMETRY
 10
0.968123
 11
0.967297
 20
0.934157
 21
0.931552
  0
LINE
  8
APS_GEOMETRY
 10
0.967297
 11
0.966462
 20
0.931552
 21
0.928957
  0
LINE
  8
APS_GEOMETRY
 10
0.966462
 11
0.965619
 20
0.928957
 21
0.926372
  0
LINE
  8
APS_GEOMETRY
 10
0.965619
 11
0.964767
 20
0.926372
 21
0.923799
  0
LINE
  8
APS_GEOMETRY
 10
0.964767
 11
0.963907
 20
0.923799
 21
0.921235
  0
LINE
  8
APS_GEOMETRY
 10
0.963907
 11
0.963039
 20
0.921235
 21
0.918683
  0
LINE
  8
APS_GEOMETRY
 10
0.963039
 11
0.962161
 20
0.918683
 21
0.91614
  0
LINE
  8
APS_GEOMETRY
 10
0.962161
 11
0.961276
 20
0.91614
 21
0.913609
  0
LINE
  8
APS_GEOMETRY
 10
0.961276
 11
0.960381
 20
0.913609
 21
0.911088
  0
LINE
  8
APS_GEOMETRY
 10
0.960381
 11
0.959479
 20
0.911088
 21
0.908577
  0
LINE
  8
APS_GEOMETRY
 10
0.959479
 11
0.958567
 20
0.908577
 21
0.906077
  0
LINE
  8
APS_GEOMETRY
 10
0.958567
 11
0.957647
 20
0.906077
 21
0.903587
  0
LINE
  8
APS_GEOMETRY
 10
0.957647
 11
0.956719
 20
0.903587
 21
0.901108
  0
LINE
  8
APS_GEOMETRY
 10
0.956719
 11
0.955782
 20
0.901108
 21
0.89864
  0
LINE
  8
APS_GEOMETRY
 10
0.955782
 11
0.954836
 20
0.89864
 21
0.896182
  0
LINE
  8
APS_GEOMETRY
 10
0.954836
 11
0.953882
 20
0.896182
 21
0.893734
  0
LINE
  8
APS_GEOMETRY
 10
0.953882
 11
0.95292
 20
0.893734
 21
0.891297
  0
LINE
  8
APS_GEOMETRY
 10
0.95292
 11
0.951948
 20
0.891297
 21
0.88887
  0
LINE
  8
APS_GEOMETRY
 10
0.951948
 11
0.950968
 20
0.88887
 21
0.886454
  0
LINE
  8
APS_GEOMETRY
 10
0.950968
 11
0.94998
 20
0.886454
 21
0.884048
  0
LINE
  8
APS_GEOMETRY
 10
0.94998
 11
0.948983
 20
0.884048
 21
0.881652
  0
LINE
  8
APS_GEOMETRY
 10
0.948983
 11
0.947977
 20
0.881652
 21
0.879267
  0
LINE
  8
APS_GEOMETRY
 10
0.947977
 11
0.946963
 20
0.879267
 21
0.876893
  0
LINE
  8
APS_GEOMETRY
 10
0.946963
 11
0.94594
 20
0.876893
 21
0.874529
  0
LINE
  8
APS_GEOMETRY
 10
0.94594
 11
0.944908
 20
0.874529
 21
0.872175
  0
LINE
  8
APS_GEOMETRY
 10
0.944908
 11
0.943868
 20
0.872175
 21
0.869832
  0
LINE
  8
APS_GEOMETRY
 10
0.943868
 11
0.942819
 20
0.869832
 21
0.867499
  0
LINE
  8
APS_GEOMETRY
 10
0.942819
 11
0.941762
 20
0.867499
 21
0.865176
  0
LINE
  8
APS_GEOMETRY
 10
0.941762
 11
0.940695
 20
0.865176
 21
0.862864
  0
LINE
  8
APS_GEOMETRY
 10
0.940695
 11
0.939621
 20
0.862864
 21
0.860562
  0
LINE
  8
APS_GEOMETRY
 10
0.939621
 11
0.938537
 20
0.860562
 21
0.858271
  0
LINE
  8
APS_GEOMETRY
 10
0.938537
 11
0.937445
 20
0.858271
 21
0.85599
  0
LINE
  8
APS_GEOMETRY
 10
0.937445
 11
0.936344
 20
0.85599
 21
0.853719
  0
LINE
  8
APS_GEOMETRY
 10
0.936344
 11
0.935235
 20
0.853719
 21
0.851458
  0
LINE
  8
APS_GEOMETRY
 10
0.935235
 11
0.934116
 20
0.851458
 21
0.849208
  0
LINE
  8
APS_GEOMETRY
 10
0.934116
 11
0.932989
 20
0.849208
 21
0.846969
  0
LINE
  8
APS_GEOMETRY
 10
0.932989
 11
0.931854
 20
0.846969
 21
0.844739
  0
LINE
  8
APS_GEOMETRY
 10
0.931854
 11
0.930709
 20
0.844739
 21
0.84252
  0
LINE
  8
APS_GEOMETRY
 10
0.930709
 11
0.929556
 20
0.84252
 21
0.840311
  0
LINE
  8
APS_GEOMETRY
 10
0.929556
 11
0.928395
 20
0.840311
 21
0.838113
  0
LINE
  8
APS_GEOMETRY
 10
0.928395
 11
0.927224
 20
0.838113
 21
0.835925
  0
LINE
  8
APS_GEOMETRY
 10
0.927224
 11
0.926045
 20
0.835925
 21
0.833747
  0
LINE
  8
APS_GEOMETRY
 10
0.926045
 11
0.924857
 20
0.833747
 21
0.831579
  0
LINE
  8
APS_GEOMETRY
 10
0.924857
 11
0.92366
 20
0.831579
 21
0.829422
  0
LINE
  8
APS_GEOMETRY
 10
0.92366
 11
0.922455
 20
0.829422
 21
0.827275
  0
LINE
  8
APS_GEOMETRY
 10
0.922455
 11
0.921241
 20
0.827275
 21
0.825138
  0
LINE
  8
APS_GEOMETRY
 10
0.921241
 11
0.920018
 20
0.825138
 21
0.823011
  0
LINE
  8
APS_GEOMETRY
 10
0.920018
 11
0.918786
 20
0.823011
 21
0.820895
  0
LINE
  8
APS_GEOMETRY
 10
0.918786
 11
0.917545
 20
0.820895
 21
0.818789
  0
LINE
  8
APS_GEOMETRY
 10
0.917545
 11
0.916296
 20
0.818789
 21
0.816693
  0
LINE
  8
APS_GEOMETRY
 10
0.916296
 11
0.915038
 20
0.816693
 21
0.814608
  0
LINE
  8
APS_GEOMETRY
 10
0.915038
 11
0.913771
 20
0.814608
 21
0.812532
  0
LINE
  8
APS_GEOMETRY
 10
0.913771
 11
0.912495
 20
0.812532
 21
0.810467
  0
LINE
  8
APS_GEOMETRY
 10
0.912495
 11
0.911211
 20
0.810467
 21
0.808412
  0
LINE
  8
APS_GEOMETRY
 10
0.911211
 11
0.909917
 20
0.808412
 21
0.806367
  0
LINE
  8
APS_GEOMETRY
 10
0.909917
 11
0.908615
 20
0.806367
 21
0.804332
  0
LINE
  8
APS_GEOMETRY
 10
0.908615
 11
0.907304
 20
0.804332
 21
0.802308
  0
LINE
  8
APS_GEOMETRY
 10
0.907304
 11
0.905984
 20
0.802308
 21
0.800294
  0
LINE
  8
APS_GEOMETRY
 10
0.905984
 11
0.904656
 20
0.800294
 21
0.79829
  0
LINE
  8
APS_GEOMETRY
 10
0.904656
 11
0.903318
 20
0.79829
 21
0.796296
  0
LINE
  8
APS_GEOMETRY
 10
0.903318
 11
0.901972
 20
0.796296
 21
0.794312
  0
LINE
  8
APS_GEOMETRY
 10
0.901972
 11
0.900617
 20
0.794312
 21
0.792338
  0
LINE
  8
APS_GEOMETRY
 10
0.900617
 11
0.899253
 20
0.792338
 21
0.790375
  0
LINE
  8
APS_GEOMETRY
 10
0.899253
 11
0.89788
 20
0.790375
 21
0.788421
  0
LINE
  8
APS_GEOMETRY
 10
0.89788
 11
0.896498
 20
0.788421
 21
0.786478
  0
LINE
  8
APS_GEOMETRY
 10
0.896498
 11
0.895107
 20
0.786478
 21
0.784545
  0
LINE
  8
APS_GEOMETRY
 10
0.895107
 11
0.893708
 20
0.784545
 21
0.782622
  0
LINE
  8
APS_GEOMETRY
 10
0.893708
 11
0.892299
 20
0.782622
 21
0.780709
  0
LINE
  8
APS_GEOMETRY
 10
0.892299
 11
0.890882
 20
0.780709
 21
0.778806
  0
LINE
  8
APS_GEOMETRY
 10
0.890882
 11
0.889455
 20
0.778806
 21
0.776913
  0
LINE
  8
APS_GEOMETRY
 10
0.889455
 11
0.88802
 20
0.776913
 21
0.775031
  0
LINE
  8
APS_GEOMETRY
 10
0.88802
 11
0.886576
 20
0.775031
 21
0.773158
  0
LINE
  8
APS_GEOMETRY
 10
0.886576
 11
0.885123
 20
0.773158
 21
0.771296
  0
LINE
  8
APS_GEOMETRY
 10
0.885123
 11
0.883661
 20
0.771296
 21
0.769443
  0
LINE
  8
APS_GEOMETRY
 10
0.883661
 11
0.88219
 20
0.769443
 21
0.767601
  0
LINE
  8
APS_GEOMETRY
 10
0.88219
 11
0.88071
 20
0.767601
 21
0.765768
  0
LINE
  8
APS_GEOMETRY
 10
0.88071
 11
0.879222
 20
0.765768
 21
0.763946
  0
LINE
  8
APS_GEOMETRY
 10
0.879222
 11
0.877724
 20
0.763946
 21
0.762134
  0
LINE
  8
APS_GEOMETRY
 10
0.877724
 11
0.876217
 20
0.762134
 21
0.760331
  0
LINE
  8
APS_GEOMETRY
 10
0.876217
 11
0.874701
 20
0.760331
 21
0.758539
  0
LINE
  8
APS_GEOMETRY
 10
0.874701
 11
0.873177
 20
0.758539
 21
0.756757
  0
LINE
  8
APS_GEOMETRY
 10
0.873177
 11
0.871643
 20
0.756757
 21
0.754985
  0
LINE
  8
APS_GEOMETRY
 10
0.871643
 11
0.870101
 20
0.754985
 21
0.753222
  0
LINE
  8
APS_GEOMETRY
 10
0.870101
 11
0.868549
 20
0.753222
 21
0.75147
  0
LINE
  8
APS_GEOMETRY
 10
0.868549
 11
0.866988
 20
0.75147
 21
0.749728
  0
LINE
  8
APS_GEOMETRY
 10
0.866988
 11
0.865419
 20
0.749728
 21
0.747995
  0
LINE
  8
APS_GEOMETRY
 10
0.865419
 11
0.86384
 20
0.747995
 21
0.746273
  0
LINE
  8
APS_GEOMETRY
 10
0.86384
 11
0.862252
 20
0.746273
 21
0.744561
  0
LINE
  8
APS_GEOMETRY
 10
0.862252
 11
0.860656
 20
0.744561
 21
0.742858
  0
LINE
  8
APS_GEOMETRY
 10
0.860656
 11
0.85905
 20
0.742858
 21
0.741166
  0
LINE
  8
APS_GEOMETRY
 10
0.85905
 11
0.857435
 20
0.741166
 21
0.739483
  0
LINE
  8
APS_GEOMETRY
 10
0.857435
 11
0.855811
 20
0.739483
 21
0.737811
  0
LINE
  8
APS_GEOMETRY
 10
0.855811
 11
0.854179
 20
0.737811
 21
0.736148
  0
LINE
  8
APS_GEOMETRY
 10
0.854179
 11
0.852537
 20
0.736148
 21
0.734495
  0
LINE
  8
APS_GEOMETRY
 10
0.852537
 11
0.850886
 20
0.734495
 21
0.732852
  0
LINE
  8
APS_GEOMETRY
 10
0.850886
 11
0.849226
 20
0.732852
 21
0.731219
  0
LINE
  8
APS_GEOMETRY
 10
0.849226
 11
0.847557
 20
0.731219
 21
0.729596
  0
LINE
  8
APS_GEOMETRY
 10
0.847557
 11
0.845879
 20
0.729596
 21
0.727983
  0
LINE
  8
APS_GEOMETRY
 10
0.845879
 11
0.844191
 20
0.727983
 21
0.72638
  0
LINE
  8
APS_GEOMETRY
 10
0.844191
 11
0.842495
 20
0.72638
 21
0.724786
  0
LINE
  8
APS_GEOMETRY
 10
0.842495
 11
0.84079
 20
0.724786
 21
0.723203
  0
LINE
  8
APS_GEOMETRY
 10
0.84079
 11
0.839075
 20
0.723203
 21
0.721629
  0
LINE
  8
APS_GEOMETRY
 10
0.839075
 11
0.837351
 20
0.721629
 21
0.720065
  0
LINE
  8
APS_GEOMETRY
 10
0.837351
 11
0.835619
 20
0.720065
 21
0.718511
  0
LINE
  8
APS_GEOMETRY
 10
0.835619
 11
0.833877
 20
0.718511
 21
0.716967
  0
LINE
  8
APS_GEOMETRY
 10
0.833877
 11
0.832126
 20
0.716967
 21
0.715433
  0
LINE
  8
APS_GEOMETRY
 10
0.832126
 11
0.830366
 20
0.715433
 21
0.713908
  0
LINE
  8
APS_GEOMETRY
 10
0.830366
 11
0.828596
 20
0.713908
 21
0.712393
  0
LINE
  8
APS_GEOMETRY
 10
0.828596
 11
0.826818
 20
0.712393
 21
0.710889
  0
LINE
  8
APS_GEOMETRY
 10
0.826818
 11
0.82503
 20
0.710889
 21
0.709393
  0
LINE
  8
APS_GEOMETRY
 10
0.82503
 11
0.823234
 20
0.709393
 21
0.707908
  0
LINE
  8
APS_GEOMETRY
 10
0.823234
 11
0.821428
 20
0.707908
 21
0.706433
  0
LINE
  8
APS_GEOMETRY
 10
0.821428
 11
0.819613
 20
0.706433
 21
0.704967
  0
LINE
  8
APS_GEOMETRY
 10
0.819613
 11
0.817788
 20
0.704967
 21
0.703511
  0
LINE
  8
APS_GEOMETRY
 10
0.817788
 11
0.815955
 20
0.703511
 21
0.702065
  0
LINE
  8
APS_GEOMETRY
 10
0.815955
 11
0.814112
 20
0.702065
 21
0.700628
  0
LINE
  8
APS_GEOMETRY
 10
0.814112
 11
0.81226
 20
0.700628
 21
0.699202
  0
LINE
  8
APS_GEOMETRY
 10
0.81226
 11
0.810399
 20
0.699202
 21
0.697785
  0
LINE
  8
APS_GEOMETRY
 10
0.810399
 11
0.808529
 20
0.697785
 21
0.696378
  0
LINE
  8
APS_GEOMETRY
 10
0.808529
 11
0.80665
 20
0.696378
 21
0.69498
  0
LINE
  8
APS_GEOMETRY
 10
0.80665
 11
0.804761
 20
0.69498
 21
0.693593
  0
LINE
  8
APS_GEOMETRY
 10
0.804761
 11
0.802863
 20
0.693593
 21
0.692215
  0
LINE
  8
APS_GEOMETRY
 10
0.802863
 11
0.800956
 20
0.692215
 21
0.690846
  0
LINE
  8
APS_GEOMETRY
 10
0.800956
 11
0.79904
 20
0.690846
 21
0.689488
  0
LINE
  8
APS_GEOMETRY
 10
0.79904
 11
0.797114
 20
0.689488
 21
0.688139
  0
LINE
  8
APS_GEOMETRY
 10
0.797114
 11
0.795179
 20
0.688139
 21
0.6868
  0
LINE
  8
APS_GEOMETRY
 10
0.795179
 11
0.793235
 20
0.6868
 21
0.68547
  0
LINE
  8
APS_GEOMETRY
 10
0.793235
 11
0.791282
 20
0.68547
 21
0.68415
  0
LINE
  8
APS_GEOMETRY
 10
0.791282
 11
0.789319
 20
0.68415
 21
0.68284
  0
LINE
  8
APS_GEOMETRY
 10
0.789319
 11
0.787347
 20
0.68284
 21
0.681539
  0
LINE
  8
APS_GEOMETRY
 10
0.787347
 11
0.785366
 20
0.681539
 21
0.680249
  0
LINE
  8
APS_GEOMETRY
 10
0.785366
 11
0.783375
 20
0.680249
 21
0.678967
  0
LINE
  8
APS_GEOMETRY
 10
0.783375
 11
0.781376
 20
0.678967
 21
0.677696
  0
LINE
  8
APS_GEOMETRY
 10
0.781376
 11
0.779367
 20
0.677696
 21
0.676434
  0
LINE
  8
APS_GEOMETRY
 10
0.779367
 11
0.777348
 20
0.676434
 21
0.675182
  0
LINE
  8
APS_GEOMETRY
 10
0.777348
 11
0.77532
 20
0.675182
 21
0.673939
  0
LINE
  8
APS_GEOMETRY
 10
0.77532
 11
0.773283
 20
0.673939
 21
0.672706
  0
LINE
  8
APS_GEOMETRY
 10
0.773283
 11
0.771237
 20
0.672706
 21
0.671482
  0
LINE
  8
APS_GEOMETRY
 10
0.771237
 11
0.769181
 20
0.671482
 21
0.670268
  0
LINE
  8
APS_GEOMETRY
 10
0.769181
 11
0.767116
 20
0.670268
 21
0.669064
  0
LINE
  8
APS_GEOMETRY
 10
0.767116
 11
0.765042
 20
0.669064
 21
0.667869
  0
LINE
  8
APS_GEOMETRY
 10
0.765042
 11
0.762958
 20
0.667869
 21
0.666684
  0
LINE
  8
APS_GEOMETRY
 10
0.762958
 11
0.760865
 20
0.666684
 21
0.665509
  0
LINE
  8
APS_GEOMETRY
 10
0.760865
 11
0.758763
 20
0.665509
 21
0.664343
  0
LINE
  8
APS_GEOMETRY
 10
0.758763
 11
0.756651
 20
0.664343
 21
0.663186
  0
LINE
  8
APS_GEOMETRY
 10
0.756651
 11
0.75453
 20
0.663186
 21
0.662039
  0
LINE
  8
APS_GEOMETRY
 10
0.75453
 11
0.752399
 20
0.662039
 21
0.660902
  0
LINE
  8
APS_GEOMETRY
 10
0.752399
 11
0.750259
 20
0.660902
 21
0.659774
  0
LINE
  8
APS_GEOMETRY
 10
0.750259
 11
0.74811
 20
0.659774
 21
0.658656
  0
LINE
  8
APS_GEOMETRY
 10
0.74811
 11
0.745951
 20
0.658656
 21
0.657547
  0
LINE
  8
APS_GEOMETRY
 10
0.745951
 11
0.743783
 20
0.657547
 21
0.656448
  0
LINE
  8
APS_GEOMETRY
 10
0.743783
 11
0.741606
 20
0.656448
 21
0.655358
  0
LINE
  8
APS_GEOMETRY
 10
0.741606
 11
0.739419
 20
0.655358
 21
0.654278
  0
LINE
  8
APS_GEOMETRY
 10
0.739419
 11
0.737222
 20
0.654278
 21
0.653207
  0
LINE
  8
APS_GEOMETRY
 10
0.737222
 11
0.735017
 20
0.653207
 21
0.652146
  0
LINE
  8
APS_GEOMETRY
 10
0.735017
 11
0.732801
 20
0.652146
 21
0.651094
  0
LINE
  8
APS_GEOMETRY
 10
0.732801
 11
0.730577
 20
0.651094
 21
0.650051
  0
LINE
  8
APS_GEOMETRY
 10
0.730577
 11
0.728342
 20
0.650051
 21
0.649018
  0
LINE
  8
APS_GEOMETRY
 10
0.728342
 11
0.726099
 20
0.649018
 21
0.647995
  0
LINE
  8
APS_GEOMETRY
 10
0.726099
 11
0.723846
 20
0.647995
 21
0.646981
  0
LINE
  8
APS_GEOMETRY
 10
0.723846
 11
0.721583
 20
0.646981
 21
0.645976
  0
LINE
  8
APS_GEOMETRY
 10
0.721583
 11
0.719311
 20
0.645976
 21
0.644981
  0
LINE
  8
APS_GEOMETRY
 10
0.719311
 11
0.71703
 20
0.644981
 21
0.643996
  0
LINE
  8
APS_GEOMETRY
 10
0.71703
 11
0.714739
 20
0.643996
 21
0.643019
  0
LINE
  8
APS_GEOMETRY
 10
0.714739
 11
0.712438
 20
0.643019
 21
0.642053
  0
LINE
  8
APS_GEOMETRY
 10
0.712438
 11
0.710129
 20
0.642053
 21
0.641095
  0
LINE
  8
APS_GEOMETRY
 10
0.710129
 11
0.707809
 20
0.641095
 21
0.640147
  0
LINE
  8
APS_GEOMETRY
 10
0.707809
 11
0.70548
 20
0.640147
 21
0.639208
  0
LINE
  8
APS_GEOMETRY
 10
0.70548
 11
0.703142
 20
0.639208
 21
0.638279
  0
LINE
  8
APS_GEOMETRY
 10
0.703142
 11
0.700794
 20
0.638279
 21
0.637359
  0
LINE
  8
APS_GEOMETRY
 10
0.700794
 11
0.698436
 20
0.637359
 21
0.636449
  0
LINE
  8
APS_GEOMETRY
 10
0.698436
 11
0.696069
 20
0.636449
 21
0.635547
  0
LINE
  8
APS_GEOMETRY
 10
0.696069
 11
0.693693
 20
0.635547
 21
0.634656
  0
LINE
  8
APS_GEOMETRY
 10
0.693693
 11
0.691306
 20
0.634656
 21
0.633773
  0
LINE
  8
APS_GEOMETRY
 10
0.691306
 11
0.688911
 20
0.633773
 21
0.6329
  0
LINE
  8
APS_GEOMETRY
 10
0.688911
 11
0.686506
 20
0.6329
 21
0.632036
  0
LINE
  8
APS_GEOMETRY
 10
0.686506
 11
0.684091
 20
0.632036
 21
0.631182
  0
LINE
  8
APS_GEOMETRY
 10
0.684091
 11
0.681666
 20
0.631182
 21
0.630336
  0
LINE
  8
APS_GEOMETRY
 10
0.681666
 11
0.679232
 20
0.630336
 21
0.629501
  0
LINE
  8
APS_GEOMETRY
 10
0.679232
 11
0.676789
 20
0.629501
 21
0.628674
  0
LINE
  8
APS_GEOMETRY
 10
0.676789
 11
0.674336
 20
0.628674
 21
0.627857
  0
LINE
  8
APS_GEOMETRY
 10
0.674336
 11
0.671873
 20
0.627857
 21
0.627049
  0
LINE
  8
APS_GEOMETRY
 10
0.671873
 11
0.669401
 20
0.627049
 21
0.62625
  0
LINE
  8
APS_GEOMETRY
 10
0.669401
 11
0.666919
 20
0.62625
 21
0.625461
  0
LINE
  8
APS_GEOMETRY
 10
0.666919
 11
0.664427
 20
0.625461
 21
0.624681
  0
LINE
  8
APS_GEOMETRY
 10
0.664427
 11
0.661926
 20
0.624681
 21
0.62391
  0
LINE
  8
APS_GEOMETRY
 10
0.661926
 11
0.659415
 20
0.62391
 21
0.623148
  0
LINE
  8
APS_GEOMETRY
 10
0.659415
 11
0.656895
 20
0.623148
 21
0.622396
  0
LINE
  8
APS_GEOMETRY
 10
0.656895
 11
0.654365
 20
0.622396
 21
0.621653
  0
LINE
  8
APS_GEOMETRY
 10
0.654365
 11
0.651825
 20
0.621653
 21
0.620919
  0
LINE
  8
APS_GEOMETRY
 10
0.651825
 11
0.649276
 20
0.620919
 21
0.620194
  0
LINE
  8
APS_GEOMETRY
 10
0.649276
 11
0.646717
 20
0.620194
 21
0.619479
  0
LINE
  8
APS_GEOMETRY
 10
0.646717
 11
0.644148
 20
0.619479
 21
0.618772
  0
LINE
  8
APS_GEOMETRY
 10
0.644148
 11
0.64157
 20
0.618772
 21
0.618075
  0
LINE
  8
APS_GEOMETRY
 10
0.64157
 11
0.638982
 20
0.618075
 21
0.617388
  0
LINE
  8
APS_GEOMETRY
 10
0.638982
 11
0.636384
 20
0.617388
 21
0.616709
  0
LINE
  8
APS_GEOMETRY
 10
0.636384
 11
0.633777
 20
0.616709
 21
0.61604
  0
LINE
  8
APS_GEOMETRY
 10
0.633777
 11
0.631159
 20
0.61604
 21
0.615379
  0
LINE
  8
APS_GEOMETRY
 10
0.631159
 11
0.628533
 20
0.615379
 21
0.614728
  0
LINE
  8
APS_GEOMETRY
 10
0.628533
 11
0.625896
 20
0.614728
 21
0.614086
  0
LINE
  8
APS_GEOMETRY
 10
0.625896
 11
0.62325
 20
0.614086
 21
0.613453
  0
LINE
  8
APS_GEOMETRY
 10
0.62325
 11
0.620594
 20
0.613453
 21
0.61283
  0
LINE
  8
APS_GEOMETRY
 10
0.620594
 11
0.617928
 20
0.61283
 21
0.612215
  0
LINE
  8
APS_GEOMETRY
 10
0.617928
 11
0.615253
 20
0.612215
 21
0.61161
  0
LINE
  8
APS_GEOMETRY
 10
0.615253
 11
0.602011
 20
0.61161
 21
0.608669
  0
LINE
  8
CONSTRUCTION
 10
0.152615
 11
0.10065
 20
-1.038482
 21
-1.166909
  0
LINE
  8
CONSTRUCTION
 10
0.10065
 11
0.20458
 20
-1.166909
 21
-1.166909
  0
LINE
  8
CONSTRUCTION
 10
0.20458
 11
0.152615
 20
-1.166909
 21
-1.038482
  0
LINE
  8
CONSTRUCTION
 10
0.152615
 11
0.559547
 20
-1.038482
 21
-1.03848
  0
LINE
  8
CONSTRUCTION
 10
0.559547
 11
0.507582
 20
-1.03848
 21
-1.166908
  0
LINE
  8
CONSTRUCTION
 10
0.507582
 11
0.611512
 20
-1.166908
 21
-1.166908
  0
LINE
  8
CONSTRUCTION
 10
0.611512
 11
0.559547
 20
-1.166908
 21
-1.03848
  0
LINE
  8
CONSTRUCTION
 10
0.559547
 11
0.966478
 20
-1.03848
 21
-1.03848
  0
LINE
  8
CONSTRUCTION
 10
0.966478
 11
0.914513
 20
-1.03848
 21
-1.166908
  0
LINE
  8
CONSTRUCTION
 10
0.914513
 11
1.018442
 20
-1.166908
 21
-1.166908
  0
LINE
  8
CONSTRUCTION
 10
1.018442
 11
0.966478
 20
-1.166908
 21
-1.03848
  0
LINE
  8
CONSTRUCTION
 10
0.966478
 11
1.373408
 20
-1.03848
 21
-1.03848
  0
LINE
  8
CONSTRUCTION
 10
1.373408
 11
1.321443
 20
-1.03848
 21
-1.166908
  0
LINE
  8
CONSTRUCTION
 10
1.321443
 11
1.425373
 20
-1.166908
 21
-1.166908
  0
LINE
  8
CONSTRUCTION
 10
1.425373
 11
1.373408
 20
-1.166908
 21
-1.03848
  0
LINE
  8
CONSTRUCTION
 10
1.373408
 11
1.780281
 20
-1.03848
 21
-1.038482
  0
LINE
  8
CONSTRUCTION
 10
1.780281
 11
1.728316
 20
-1.038482
 21
-1.166909
  0
LINE
  8
CONSTRUCTION
 10
1.728316
 11
1.832246
 20
-1.166909
 21
-1.166909
  0
LINE
  8
CONSTRUCTION
 10
1.832246
 11
1.780281
 20
-1.166909
 21
-1.038482
  0
LINE
  8
CONSTRUCTION
 10
0.0
 11
4.0
 20
-1.561751
 21
-1.561751
  0
TEXT
  8
TEXT
 10
0.10065
 20
-1.405784
 30
0.0
 40
0.224
 50
0.0
  1
DOVETAIL DESIGNS
  0
TEXT
  8
TEXT
 10
2.276036
 20
-1.551751
 30
0.0
 40
0.099
 50
0.0
  1
& MILLWORK INC.
  0
TEXT
  8
TEXT
 10
1.092458
 20
-1.640461
 30
0.0
 40
0.07
 50
0.0
  1
Established 1979
  0
TEXT
  8
TEXT
 10
0.1
 20
-1.8
 30
0.0
 40
0.1
 50
0.0
  1
Phone: (406) 248-5010    Website: www.dovetailmt.com
  0
TEXT
  8
TEXT
 10
0.0
 20
-0.65
 30
0.0
 40
0.1
 50
0.0
  1
(1/2"x1-1/2")
  0
TEXT
  8
TEXT
 10
0.0
 20
-0.5
 30
0.0
 40
0.1
 50
0.0
  1
1"x1-1/16"
  0
TEXT
  8
TEXT
 10
0.0
 20
-0.25
 30
0.0
 40
0.15625
 50
0.0
  1
CN142
  0
ENDSEC
  0
EOF
