  0
SECTION
  2
ENTITIES
  0
ARC
  8
APS_GEOMETRY
 10
0.877029
 20
-0.027227
 40
0.672265
 50
103.977223
 51
176.36501
  0
LINE
  8
APS_GEOMETRY
 10
0.206116
 11
0.0
 20
0.015395
 21
0.0
  0
LINE
  8
APS_GEOMETRY
 10
0.0
 11
0.0
 20
0.0
 21
0.5027
  0
LINE
  8
APS_GEOMETRY
 10
0.0
 11
1.439065
 20
0.5027
 21
2.636114
  0
LINE
  8
APS_GEOMETRY
 10
1.439065
 11
1.799644
 20
2.636114
 21
2.686779
  0
LINE
  8
APS_GEOMETRY
 10
1.799644
 11
1.794217
 20
2.686779
 21
2.170288
  0
LINE
  8
APS_GEOMETRY
 10
1.794217
 11
1.789392
 20
2.170288
 21
2.168468
  0
LINE
  8
APS_GEOMETRY
 10
1.789392
 11
1.784595
 20
2.168468
 21
2.166639
  0
LINE
  8
APS_GEOMETRY
 10
1.784595
 11
1.779826
 20
2.166639
 21
2.1648
  0
LINE
  8
APS_GEOMETRY
 10
1.779826
 11
1.775086
 20
2.1648
 21
2.162952
  0
LINE
  8
APS_GEOMETRY
 10
1.775086
 11
1.770373
 20
2.162952
 21
2.161094
  0
LINE
  8
APS_GEOMETRY
 10
1.770373
 11
1.765689
 20
2.161094
 21
2.159226
  0
LINE
  8
APS_GEOMETRY
 10
1.765689
 11
1.761033
 20
2.159226
 21
2.157349
  0
LINE
  8
APS_GEOMETRY
 10
1.761033
 11
1.756404
 20
2.157349
 21
2.155462
  0
LINE
  8
APS_GEOMETRY
 10
1.756404
 11
1.751804
 20
2.155462
 21
2.153566
  0
LINE
  8
APS_GEOMETRY
 10
1.751804
 11
1.74723
 20
2.153566
 21
2.15166
  0
LINE
  8
APS_GEOMETRY
 10
1.74723
 11
1.742685
 20
2.15166
 21
2.149745
  0
LINE
  8
APS_GEOMETRY
 10
1.742685
 11
1.738166
 20
2.149745
 21
2.14782
  0
LINE
  8
APS_GEOMETRY
 10
1.738166
 11
1.733675
 20
2.14782
 21
2.145887
  0
LINE
  8
APS_GEOMETRY
 10
1.733675
 11
1.729211
 20
2.145887
 21
2.143944
  0
LINE
  8
APS_GEOMETRY
 10
1.729211
 11
1.724775
 20
2.143944
 21
2.141991
  0
LINE
  8
APS_GEOMETRY
 10
1.724775
 11
1.720365
 20
2.141991
 21
2.14003
  0
LINE
  8
APS_GEOMETRY
 10
1.720365
 11
1.715982
 20
2.14003
 21
2.138059
  0
LINE
  8
APS_GEOMETRY
 10
1.715982
 11
1.711626
 20
2.138059
 21
2.136079
  0
LINE
  8
APS_GEOMETRY
 10
1.711626
 11
1.707296
 20
2.136079
 21
2.13409
  0
LINE
  8
APS_GEOMETRY
 10
1.707296
 11
1.702993
 20
2.13409
 21
2.132092
  0
LINE
  8
APS_GEOMETRY
 10
1.702993
 11
1.698716
 20
2.132092
 21
2.130085
  0
LINE
  8
APS_GEOMETRY
 10
1.698716
 11
1.694466
 20
2.130085
 21
2.128069
  0
LINE
  8
APS_GEOMETRY
 10
1.694466
 11
1.690242
 20
2.128069
 21
2.126044
  0
LINE
  8
APS_GEOMETRY
 10
1.690242
 11
1.686044
 20
2.126044
 21
2.124011
  0
LINE
  8
APS_GEOMETRY
 10
1.686044
 11
1.681872
 20
2.124011
 21
2.121968
  0
LINE
  8
APS_GEOMETRY
 10
1.681872
 11
1.677726
 20
2.121968
 21
2.119916
  0
LINE
  8
APS_GEOMETRY
 10
1.677726
 11
1.673606
 20
2.119916
 21
2.117856
  0
LINE
  8
APS_GEOMETRY
 10
1.673606
 11
1.669512
 20
2.117856
 21
2.115787
  0
LINE
  8
APS_GEOMETRY
 10
1.669512
 11
1.665443
 20
2.115787
 21
2.113709
  0
LINE
  8
APS_GEOMETRY
 10
1.665443
 11
1.6614
 20
2.113709
 21
2.111623
  0
LINE
  8
APS_GEOMETRY
 10
1.6614
 11
1.657382
 20
2.111623
 21
2.109528
  0
LINE
  8
APS_GEOMETRY
 10
1.657382
 11
1.653389
 20
2.109528
 21
2.107424
  0
LINE
  8
APS_GEOMETRY
 10
1.653389
 11
1.649421
 20
2.107424
 21
2.105312
  0
LINE
  8
APS_GEOMETRY
 10
1.649421
 11
1.645479
 20
2.105312
 21
2.103192
  0
LINE
  8
APS_GEOMETRY
 10
1.645479
 11
1.641561
 20
2.103192
 21
2.101062
  0
LINE
  8
APS_GEOMETRY
 10
1.641561
 11
1.637669
 20
2.101062
 21
2.098925
  0
LINE
  8
APS_GEOMETRY
 10
1.637669
 11
1.633801
 20
2.098925
 21
2.096779
  0
LINE
  8
APS_GEOMETRY
 10
1.633801
 11
1.629958
 20
2.096779
 21
2.094625
  0
LINE
  8
APS_GEOMETRY
 10
1.629958
 11
1.626139
 20
2.094625
 21
2.092462
  0
LINE
  8
APS_GEOMETRY
 10
1.626139
 11
1.622345
 20
2.092462
 21
2.090291
  0
LINE
  8
APS_GEOMETRY
 10
1.622345
 11
1.618575
 20
2.090291
 21
2.088112
  0
LINE
  8
APS_GEOMETRY
 10
1.618575
 11
1.61483
 20
2.088112
 21
2.085925
  0
LINE
  8
APS_GEOMETRY
 10
1.61483
 11
1.611108
 20
2.085925
 21
2.083729
  0
LINE
  8
APS_GEOMETRY
 10
1.611108
 11
1.607411
 20
2.083729
 21
2.081525
  0
LINE
  8
APS_GEOMETRY
 10
1.607411
 11
1.603737
 20
2.081525
 21
2.079314
  0
LINE
  8
APS_GEOMETRY
 10
1.603737
 11
1.600087
 20
2.079314
 21
2.077094
  0
LINE
  8
APS_GEOMETRY
 10
1.600087
 11
1.596461
 20
2.077094
 21
2.074866
  0
LINE
  8
APS_GEOMETRY
 10
1.596461
 11
1.592859
 20
2.074866
 21
2.07263
  0
LINE
  8
APS_GEOMETRY
 10
1.592859
 11
1.58928
 20
2.07263
 21
2.070387
  0
LINE
  8
APS_GEOMETRY
 10
1.58928
 11
1.585725
 20
2.070387
 21
2.068135
  0
LINE
  8
APS_GEOMETRY
 10
1.585725
 11
1.582192
 20
2.068135
 21
2.065876
  0
LINE
  8
APS_GEOMETRY
 10
1.582192
 11
1.578683
 20
2.065876
 21
2.063609
  0
LINE
  8
APS_GEOMETRY
 10
1.578683
 11
1.575197
 20
2.063609
 21
2.061334
  0
LINE
  8
APS_GEOMETRY
 10
1.575197
 11
1.571734
 20
2.061334
 21
2.059051
  0
LINE
  8
APS_GEOMETRY
 10
1.571734
 11
1.568294
 20
2.059051
 21
2.05676
  0
LINE
  8
APS_GEOMETRY
 10
1.568294
 11
1.564877
 20
2.05676
 21
2.054462
  0
LINE
  8
APS_GEOMETRY
 10
1.564877
 11
1.561482
 20
2.054462
 21
2.052157
  0
LINE
  8
APS_GEOMETRY
 10
1.561482
 11
1.55811
 20
2.052157
 21
2.049843
  0
LINE
  8
APS_GEOMETRY
 10
1.55811
 11
1.55476
 20
2.049843
 21
2.047522
  0
LINE
  8
APS_GEOMETRY
 10
1.55476
 11
1.551433
 20
2.047522
 21
2.045194
  0
LINE
  8
APS_GEOMETRY
 10
1.551433
 11
1.548128
 20
2.045194
 21
2.042858
  0
LINE
  8
APS_GEOMETRY
 10
1.548128
 11
1.544845
 20
2.042858
 21
2.040515
  0
LINE
  8
APS_GEOMETRY
 10
1.544845
 11
1.541584
 20
2.040515
 21
2.038164
  0
LINE
  8
APS_GEOMETRY
 10
1.541584
 11
1.538345
 20
2.038164
 21
2.035806
  0
LINE
  8
APS_GEOMETRY
 10
1.538345
 11
1.535128
 20
2.035806
 21
2.033441
  0
LINE
  8
APS_GEOMETRY
 10
1.535128
 11
1.531932
 20
2.033441
 21
2.031069
  0
LINE
  8
APS_GEOMETRY
 10
1.531932
 11
1.528758
 20
2.031069
 21
2.028689
  0
LINE
  8
APS_GEOMETRY
 10
1.528758
 11
1.525606
 20
2.028689
 21
2.026302
  0
LINE
  8
APS_GEOMETRY
 10
1.525606
 11
1.522475
 20
2.026302
 21
2.023908
  0
LINE
  8
APS_GEOMETRY
 10
1.522475
 11
1.519365
 20
2.023908
 21
2.021507
  0
LINE
  8
APS_GEOMETRY
 10
1.519365
 11
1.516277
 20
2.021507
 21
2.019098
  0
LINE
  8
APS_GEOMETRY
 10
1.516277
 11
1.513209
 20
2.019098
 21
2.016683
  0
LINE
  8
APS_GEOMETRY
 10
1.513209
 11
1.510163
 20
2.016683
 21
2.014261
  0
LINE
  8
APS_GEOMETRY
 10
1.510163
 11
1.507137
 20
2.014261
 21
2.011831
  0
LINE
  8
APS_GEOMETRY
 10
1.507137
 11
1.504133
 20
2.011831
 21
2.009395
  0
LINE
  8
APS_GEOMETRY
 10
1.504133
 11
1.501149
 20
2.009395
 21
2.006952
  0
LINE
  8
APS_GEOMETRY
 10
1.501149
 11
1.498185
 20
2.006952
 21
2.004502
  0
LINE
  8
APS_GEOMETRY
 10
1.498185
 11
1.495242
 20
2.004502
 21
2.002045
  0
LINE
  8
APS_GEOMETRY
 10
1.495242
 11
1.492319
 20
2.002045
 21
1.999582
  0
LINE
  8
APS_GEOMETRY
 10
1.492319
 11
1.489417
 20
1.999582
 21
1.997111
  0
LINE
  8
APS_GEOMETRY
 10
1.489417
 11
1.486534
 20
1.997111
 21
1.994634
  0
LINE
  8
APS_GEOMETRY
 10
1.486534
 11
1.483672
 20
1.994634
 21
1.992151
  0
LINE
  8
APS_GEOMETRY
 10
1.483672
 11
1.480829
 20
1.992151
 21
1.989661
  0
LINE
  8
APS_GEOMETRY
 10
1.480829
 11
1.478007
 20
1.989661
 21
1.987164
  0
LINE
  8
APS_GEOMETRY
 10
1.478007
 11
1.475204
 20
1.987164
 21
1.98466
  0
LINE
  8
APS_GEOMETRY
 10
1.475204
 11
1.472421
 20
1.98466
 21
1.982151
  0
LINE
  8
APS_GEOMETRY
 10
1.472421
 11
1.469657
 20
1.982151
 21
1.979634
  0
LINE
  8
APS_GEOMETRY
 10
1.469657
 11
1.466912
 20
1.979634
 21
1.977112
  0
LINE
  8
APS_GEOMETRY
 10
1.466912
 11
1.464187
 20
1.977112
 21
1.974583
  0
LINE
  8
APS_GEOMETRY
 10
1.464187
 11
1.461481
 20
1.974583
 21
1.972047
  0
LINE
  8
APS_GEOMETRY
 10
1.461481
 11
1.458795
 20
1.972047
 21
1.969505
  0
LINE
  8
APS_GEOMETRY
 10
1.458795
 11
1.456127
 20
1.969505
 21
1.966958
  0
LINE
  8
APS_GEOMETRY
 10
1.456127
 11
1.453478
 20
1.966958
 21
1.964403
  0
LINE
  8
APS_GEOMETRY
 10
1.453478
 11
1.450848
 20
1.964403
 21
1.961843
  0
LINE
  8
APS_GEOMETRY
 10
1.450848
 11
1.448236
 20
1.961843
 21
1.959276
  0
LINE
  8
APS_GEOMETRY
 10
1.448236
 11
1.445643
 20
1.959276
 21
1.956704
  0
LINE
  8
APS_GEOMETRY
 10
1.445643
 11
1.443069
 20
1.956704
 21
1.954125
  0
LINE
  8
APS_GEOMETRY
 10
1.443069
 11
1.440513
 20
1.954125
 21
1.95154
  0
LINE
  8
APS_GEOMETRY
 10
1.440513
 11
1.437975
 20
1.95154
 21
1.94895
  0
LINE
  8
APS_GEOMETRY
 10
1.437975
 11
1.435455
 20
1.94895
 21
1.946353
  0
LINE
  8
APS_GEOMETRY
 10
1.435455
 11
1.432953
 20
1.946353
 21
1.94375
  0
LINE
  8
APS_GEOMETRY
 10
1.432953
 11
1.43047
 20
1.94375
 21
1.941142
  0
LINE
  8
APS_GEOMETRY
 10
1.43047
 11
1.428004
 20
1.941142
 21
1.938528
  0
LINE
  8
APS_GEOMETRY
 10
1.428004
 11
1.425556
 20
1.938528
 21
1.935907
  0
LINE
  8
APS_GEOMETRY
 10
1.425556
 11
1.423125
 20
1.935907
 21
1.933282
  0
LINE
  8
APS_GEOMETRY
 10
1.423125
 11
1.420712
 20
1.933282
 21
1.93065
  0
LINE
  8
APS_GEOMETRY
 10
1.420712
 11
1.418316
 20
1.93065
 21
1.928013
  0
LINE
  8
APS_GEOMETRY
 10
1.418316
 11
1.415938
 20
1.928013
 21
1.92537
  0
LINE
  8
APS_GEOMETRY
 10
1.415938
 11
1.413577
 20
1.92537
 21
1.922721
  0
LINE
  8
APS_GEOMETRY
 10
1.413577
 11
1.411233
 20
1.922721
 21
1.920067
  0
LINE
  8
APS_GEOMETRY
 10
1.411233
 11
1.408906
 20
1.920067
 21
1.917408
  0
LINE
  8
APS_GEOMETRY
 10
1.408906
 11
1.406595
 20
1.917408
 21
1.914743
  0
LINE
  8
APS_GEOMETRY
 10
1.406595
 11
1.404302
 20
1.914743
 21
1.912072
  0
LINE
  8
APS_GEOMETRY
 10
1.404302
 11
1.402025
 20
1.912072
 21
1.909396
  0
LINE
  8
APS_GEOMETRY
 10
1.402025
 11
1.399765
 20
1.909396
 21
1.906715
  0
LINE
  8
APS_GEOMETRY
 10
1.399765
 11
1.397521
 20
1.906715
 21
1.904028
  0
LINE
  8
APS_GEOMETRY
 10
1.397521
 11
1.395294
 20
1.904028
 21
1.901336
  0
LINE
  8
APS_GEOMETRY
 10
1.395294
 11
1.393083
 20
1.901336
 21
1.898639
  0
LINE
  8
APS_GEOMETRY
 10
1.393083
 11
1.390888
 20
1.898639
 21
1.895937
  0
LINE
  8
APS_GEOMETRY
 10
1.390888
 11
1.388709
 20
1.895937
 21
1.893229
  0
LINE
  8
APS_GEOMETRY
 10
1.388709
 11
1.386546
 20
1.893229
 21
1.890516
  0
LINE
  8
APS_GEOMETRY
 10
1.386546
 11
1.384399
 20
1.890516
 21
1.887798
  0
LINE
  8
APS_GEOMETRY
 10
1.384399
 11
1.382267
 20
1.887798
 21
1.885075
  0
LINE
  8
APS_GEOMETRY
 10
1.382267
 11
1.380151
 20
1.885075
 21
1.882348
  0
LINE
  8
APS_GEOMETRY
 10
1.380151
 11
1.378051
 20
1.882348
 21
1.879615
  0
LINE
  8
APS_GEOMETRY
 10
1.378051
 11
1.375966
 20
1.879615
 21
1.876877
  0
LINE
  8
APS_GEOMETRY
 10
1.375966
 11
1.373897
 20
1.876877
 21
1.874134
  0
LINE
  8
APS_GEOMETRY
 10
1.373897
 11
1.371842
 20
1.874134
 21
1.871386
  0
LINE
  8
APS_GEOMETRY
 10
1.371842
 11
1.369803
 20
1.871386
 21
1.868634
  0
LINE
  8
APS_GEOMETRY
 10
1.369803
 11
1.367779
 20
1.868634
 21
1.865877
  0
LINE
  8
APS_GEOMETRY
 10
1.367779
 11
1.365769
 20
1.865877
 21
1.863115
  0
LINE
  8
APS_GEOMETRY
 10
1.365769
 11
1.363774
 20
1.863115
 21
1.860348
  0
LINE
  8
APS_GEOMETRY
 10
1.363774
 11
1.361795
 20
1.860348
 21
1.857577
  0
LINE
  8
APS_GEOMETRY
 10
1.361795
 11
1.359829
 20
1.857577
 21
1.854801
  0
LINE
  8
APS_GEOMETRY
 10
1.359829
 11
1.357878
 20
1.854801
 21
1.85202
  0
LINE
  8
APS_GEOMETRY
 10
1.357878
 11
1.355942
 20
1.85202
 21
1.849235
  0
LINE
  8
APS_GEOMETRY
 10
1.355942
 11
1.354019
 20
1.849235
 21
1.846445
  0
LINE
  8
APS_GEOMETRY
 10
1.354019
 11
1.352111
 20
1.846445
 21
1.843651
  0
LINE
  8
APS_GEOMETRY
 10
1.352111
 11
1.350217
 20
1.843651
 21
1.840853
  0
LINE
  8
APS_GEOMETRY
 10
1.350217
 11
1.348337
 20
1.840853
 21
1.838049
  0
LINE
  8
APS_GEOMETRY
 10
1.348337
 11
1.346471
 20
1.838049
 21
1.835242
  0
LINE
  8
APS_GEOMETRY
 10
1.346471
 11
1.344618
 20
1.835242
 21
1.83243
  0
LINE
  8
APS_GEOMETRY
 10
1.344618
 11
1.342779
 20
1.83243
 21
1.829614
  0
LINE
  8
APS_GEOMETRY
 10
1.342779
 11
1.340954
 20
1.829614
 21
1.826794
  0
LINE
  8
APS_GEOMETRY
 10
1.340954
 11
1.339142
 20
1.826794
 21
1.82397
  0
LINE
  8
APS_GEOMETRY
 10
1.339142
 11
1.337343
 20
1.82397
 21
1.821141
  0
LINE
  8
APS_GEOMETRY
 10
1.337343
 11
1.335557
 20
1.821141
 21
1.818308
  0
LINE
  8
APS_GEOMETRY
 10
1.335557
 11
1.333785
 20
1.818308
 21
1.815472
  0
LINE
  8
APS_GEOMETRY
 10
1.333785
 11
1.332025
 20
1.815472
 21
1.812631
  0
LINE
  8
APS_GEOMETRY
 10
1.332025
 11
1.330279
 20
1.812631
 21
1.809786
  0
LINE
  8
APS_GEOMETRY
 10
1.330279
 11
1.328545
 20
1.809786
 21
1.806937
  0
LINE
  8
APS_GEOMETRY
 10
1.328545
 11
1.326824
 20
1.806937
 21
1.804084
  0
LINE
  8
APS_GEOMETRY
 10
1.326824
 11
1.325116
 20
1.804084
 21
1.801227
  0
LINE
  8
APS_GEOMETRY
 10
1.325116
 11
1.32342
 20
1.801227
 21
1.798367
  0
LINE
  8
APS_GEOMETRY
 10
1.32342
 11
1.321736
 20
1.798367
 21
1.795503
  0
LINE
  8
APS_GEOMETRY
 10
1.321736
 11
1.320065
 20
1.795503
 21
1.792634
  0
LINE
  8
APS_GEOMETRY
 10
1.320065
 11
1.318405
 20
1.792634
 21
1.789762
  0
LINE
  8
APS_GEOMETRY
 10
1.318405
 11
1.316758
 20
1.789762
 21
1.786887
  0
LINE
  8
APS_GEOMETRY
 10
1.316758
 11
1.315123
 20
1.786887
 21
1.784008
  0
LINE
  8
APS_GEOMETRY
 10
1.315123
 11
1.313499
 20
1.784008
 21
1.781125
  0
LINE
  8
APS_GEOMETRY
 10
1.313499
 11
1.311888
 20
1.781125
 21
1.778238
  0
LINE
  8
APS_GEOMETRY
 10
1.311888
 11
1.310288
 20
1.778238
 21
1.775348
  0
LINE
  8
APS_GEOMETRY
 10
1.310288
 11
1.308699
 20
1.775348
 21
1.772455
  0
LINE
  8
APS_GEOMETRY
 10
1.308699
 11
1.307122
 20
1.772455
 21
1.769558
  0
LINE
  8
APS_GEOMETRY
 10
1.307122
 11
1.305556
 20
1.769558
 21
1.766657
  0
LINE
  8
APS_GEOMETRY
 10
1.305556
 11
1.304002
 20
1.766657
 21
1.763753
  0
LINE
  8
APS_GEOMETRY
 10
1.304002
 11
1.302458
 20
1.763753
 21
1.760846
  0
LINE
  8
APS_GEOMETRY
 10
1.302458
 11
1.300926
 20
1.760846
 21
1.757935
  0
LINE
  8
APS_GEOMETRY
 10
1.300926
 11
1.299404
 20
1.757935
 21
1.755022
  0
LINE
  8
APS_GEOMETRY
 10
1.299404
 11
1.297893
 20
1.755022
 21
1.752105
  0
LINE
  8
APS_GEOMETRY
 10
1.297893
 11
1.296393
 20
1.752105
 21
1.749184
  0
LINE
  8
APS_GEOMETRY
 10
1.296393
 11
1.294904
 20
1.749184
 21
1.746261
  0
LINE
  8
APS_GEOMETRY
 10
1.294904
 11
1.293425
 20
1.746261
 21
1.743334
  0
LINE
  8
APS_GEOMETRY
 10
1.293425
 11
1.291956
 20
1.743334
 21
1.740405
  0
LINE
  8
APS_GEOMETRY
 10
1.291956
 11
1.290498
 20
1.740405
 21
1.737472
  0
LINE
  8
APS_GEOMETRY
 10
1.290498
 11
1.289049
 20
1.737472
 21
1.734536
  0
LINE
  8
APS_GEOMETRY
 10
1.289049
 11
1.287611
 20
1.734536
 21
1.731598
  0
LINE
  8
APS_GEOMETRY
 10
1.287611
 11
1.286183
 20
1.731598
 21
1.728656
  0
LINE
  8
APS_GEOMETRY
 10
1.286183
 11
1.284765
 20
1.728656
 21
1.725712
  0
LINE
  8
APS_GEOMETRY
 10
1.284765
 11
1.283356
 20
1.725712
 21
1.722765
  0
LINE
  8
APS_GEOMETRY
 10
1.283356
 11
1.281957
 20
1.722765
 21
1.719814
  0
LINE
  8
APS_GEOMETRY
 10
1.281957
 11
1.280567
 20
1.719814
 21
1.716861
  0
LINE
  8
APS_GEOMETRY
 10
1.280567
 11
1.279187
 20
1.716861
 21
1.713906
  0
LINE
  8
APS_GEOMETRY
 10
1.279187
 11
1.277817
 20
1.713906
 21
1.710948
  0
LINE
  8
APS_GEOMETRY
 10
1.277817
 11
1.276455
 20
1.710948
 21
1.707987
  0
LINE
  8
APS_GEOMETRY
 10
1.276455
 11
1.275103
 20
1.707987
 21
1.705023
  0
LINE
  8
APS_GEOMETRY
 10
1.275103
 11
1.273759
 20
1.705023
 21
1.702057
  0
LINE
  8
APS_GEOMETRY
 10
1.273759
 11
1.272425
 20
1.702057
 21
1.699088
  0
LINE
  8
APS_GEOMETRY
 10
1.272425
 11
1.271099
 20
1.699088
 21
1.696117
  0
LINE
  8
APS_GEOMETRY
 10
1.271099
 11
1.269782
 20
1.696117
 21
1.693143
  0
LINE
  8
APS_GEOMETRY
 10
1.269782
 11
1.268473
 20
1.693143
 21
1.690167
  0
LINE
  8
APS_GEOMETRY
 10
1.268473
 11
1.267173
 20
1.690167
 21
1.687188
  0
LINE
  8
APS_GEOMETRY
 10
1.267173
 11
1.265882
 20
1.687188
 21
1.684208
  0
LINE
  8
APS_GEOMETRY
 10
1.265882
 11
1.264599
 20
1.684208
 21
1.681224
  0
LINE
  8
APS_GEOMETRY
 10
1.264599
 11
1.263323
 20
1.681224
 21
1.678239
  0
LINE
  8
APS_GEOMETRY
 10
1.263323
 11
1.262056
 20
1.678239
 21
1.675251
  0
LINE
  8
APS_GEOMETRY
 10
1.262056
 11
1.260797
 20
1.675251
 21
1.672261
  0
LINE
  8
APS_GEOMETRY
 10
1.260797
 11
1.259546
 20
1.672261
 21
1.669269
  0
LINE
  8
APS_GEOMETRY
 10
1.259546
 11
1.258302
 20
1.669269
 21
1.666275
  0
LINE
  8
APS_GEOMETRY
 10
1.258302
 11
1.257066
 20
1.666275
 21
1.663279
  0
LINE
  8
APS_GEOMETRY
 10
1.257066
 11
1.255838
 20
1.663279
 21
1.660281
  0
LINE
  8
APS_GEOMETRY
 10
1.255838
 11
1.254617
 20
1.660281
 21
1.657281
  0
LINE
  8
APS_GEOMETRY
 10
1.254617
 11
1.253403
 20
1.657281
 21
1.654278
  0
LINE
  8
APS_GEOMETRY
 10
1.253403
 11
1.252197
 20
1.654278
 21
1.651274
  0
LINE
  8
APS_GEOMETRY
 10
1.252197
 11
1.250997
 20
1.651274
 21
1.648268
  0
LINE
  8
APS_GEOMETRY
 10
1.250997
 11
1.249805
 20
1.648268
 21
1.64526
  0
LINE
  8
APS_GEOMETRY
 10
1.249805
 11
1.24862
 20
1.64526
 21
1.642251
  0
LINE
  8
APS_GEOMETRY
 10
1.24862
 11
1.247441
 20
1.642251
 21
1.639239
  0
LINE
  8
APS_GEOMETRY
 10
1.247441
 11
1.246269
 20
1.639239
 21
1.636226
  0
LINE
  8
APS_GEOMETRY
 10
1.246269
 11
1.245104
 20
1.636226
 21
1.633211
  0
LINE
  8
APS_GEOMETRY
 10
1.245104
 11
1.243945
 20
1.633211
 21
1.630195
  0
LINE
  8
APS_GEOMETRY
 10
1.243945
 11
1.242793
 20
1.630195
 21
1.627177
  0
LINE
  8
APS_GEOMETRY
 10
1.242793
 11
1.241646
 20
1.627177
 21
1.624157
  0
LINE
  8
APS_GEOMETRY
 10
1.241646
 11
1.240506
 20
1.624157
 21
1.621136
  0
LINE
  8
APS_GEOMETRY
 10
1.240506
 11
1.239372
 20
1.621136
 21
1.618113
  0
LINE
  8
APS_GEOMETRY
 10
1.239372
 11
1.238244
 20
1.618113
 21
1.615089
  0
LINE
  8
APS_GEOMETRY
 10
1.238244
 11
1.237122
 20
1.615089
 21
1.612063
  0
LINE
  8
APS_GEOMETRY
 10
1.237122
 11
1.236006
 20
1.612063
 21
1.609037
  0
LINE
  8
APS_GEOMETRY
 10
1.236006
 11
1.234895
 20
1.609037
 21
1.606008
  0
LINE
  8
APS_GEOMETRY
 10
1.234895
 11
1.23379
 20
1.606008
 21
1.602979
  0
LINE
  8
APS_GEOMETRY
 10
1.23379
 11
1.23269
 20
1.602979
 21
1.599948
  0
LINE
  8
APS_GEOMETRY
 10
1.23269
 11
1.231596
 20
1.599948
 21
1.596916
  0
LINE
  8
APS_GEOMETRY
 10
1.231596
 11
1.230506
 20
1.596916
 21
1.593882
  0
LINE
  8
APS_GEOMETRY
 10
1.230506
 11
1.229422
 20
1.593882
 21
1.590848
  0
LINE
  8
APS_GEOMETRY
 10
1.229422
 11
1.228343
 20
1.590848
 21
1.587812
  0
LINE
  8
APS_GEOMETRY
 10
1.228343
 11
1.227269
 20
1.587812
 21
1.584776
  0
LINE
  8
APS_GEOMETRY
 10
1.227269
 11
1.225135
 20
1.584776
 21
1.5787
  0
LINE
  8
APS_GEOMETRY
 10
1.225135
 11
1.223019
 20
1.5787
 21
1.57262
  0
LINE
  8
APS_GEOMETRY
 10
1.223019
 11
1.220921
 20
1.57262
 21
1.566536
  0
LINE
  8
APS_GEOMETRY
 10
1.220921
 11
1.21884
 20
1.566536
 21
1.560449
  0
LINE
  8
APS_GEOMETRY
 10
1.21884
 11
1.216774
 20
1.560449
 21
1.55436
  0
LINE
  8
APS_GEOMETRY
 10
1.216774
 11
1.214723
 20
1.55436
 21
1.548268
  0
LINE
  8
APS_GEOMETRY
 10
1.214723
 11
1.212687
 20
1.548268
 21
1.542173
  0
LINE
  8
APS_GEOMETRY
 10
1.212687
 11
1.210664
 20
1.542173
 21
1.536077
  0
LINE
  8
APS_GEOMETRY
 10
1.210664
 11
1.208653
 20
1.536077
 21
1.529979
  0
LINE
  8
APS_GEOMETRY
 10
1.208653
 11
1.206654
 20
1.529979
 21
1.523879
  0
LINE
  8
APS_GEOMETRY
 10
1.206654
 11
1.204666
 20
1.523879
 21
1.517779
  0
LINE
  8
APS_GEOMETRY
 10
1.204666
 11
1.202688
 20
1.517779
 21
1.511678
  0
LINE
  8
APS_GEOMETRY
 10
1.202688
 11
1.200718
 20
1.511678
 21
1.505576
  0
LINE
  8
APS_GEOMETRY
 10
1.200718
 11
1.198758
 20
1.505576
 21
1.499475
  0
LINE
  8
APS_GEOMETRY
 10
1.198758
 11
1.196804
 20
1.499475
 21
1.493373
  0
LINE
  8
APS_GEOMETRY
 10
1.196804
 11
1.194857
 20
1.493373
 21
1.487273
  0
LINE
  8
APS_GEOMETRY
 10
1.194857
 11
1.192916
 20
1.487273
 21
1.481173
  0
LINE
  8
APS_GEOMETRY
 10
1.192916
 11
1.189048
 20
1.481173
 21
1.468976
  0
LINE
  8
APS_GEOMETRY
 10
1.189048
 11
1.185193
 20
1.468976
 21
1.456787
  0
LINE
  8
APS_GEOMETRY
 10
1.185193
 11
1.181344
 20
1.456787
 21
1.444608
  0
LINE
  8
APS_GEOMETRY
 10
1.181344
 11
1.177495
 20
1.444608
 21
1.43244
  0
LINE
  8
APS_GEOMETRY
 10
1.177495
 11
1.173639
 20
1.43244
 21
1.420287
  0
LINE
  8
APS_GEOMETRY
 10
1.173639
 11
1.171706
 20
1.420287
 21
1.414217
  0
LINE
  8
APS_GEOMETRY
 10
1.171706
 11
1.169768
 20
1.414217
 21
1.408151
  0
LINE
  8
APS_GEOMETRY
 10
1.169768
 11
1.167826
 20
1.408151
 21
1.40209
  0
LINE
  8
APS_GEOMETRY
 10
1.167826
 11
1.165877
 20
1.40209
 21
1.396035
  0
LINE
  8
APS_GEOMETRY
 10
1.165877
 11
1.163922
 20
1.396035
 21
1.389985
  0
LINE
  8
APS_GEOMETRY
 10
1.163922
 11
1.161959
 20
1.389985
 21
1.38394
  0
LINE
  8
APS_GEOMETRY
 10
1.161959
 11
1.159987
 20
1.38394
 21
1.377902
  0
LINE
  8
APS_GEOMETRY
 10
1.159987
 11
1.158006
 20
1.377902
 21
1.37187
  0
LINE
  8
APS_GEOMETRY
 10
1.158006
 11
1.156015
 20
1.37187
 21
1.365845
  0
LINE
  8
APS_GEOMETRY
 10
1.156015
 11
1.154013
 20
1.365845
 21
1.359827
  0
LINE
  8
APS_GEOMETRY
 10
1.154013
 11
1.151999
 20
1.359827
 21
1.353816
  0
LINE
  8
APS_GEOMETRY
 10
1.151999
 11
1.149972
 20
1.353816
 21
1.347813
  0
LINE
  8
APS_GEOMETRY
 10
1.149972
 11
1.147932
 20
1.347813
 21
1.341818
  0
LINE
  8
APS_GEOMETRY
 10
1.147932
 11
1.145877
 20
1.341818
 21
1.335831
  0
LINE
  8
APS_GEOMETRY
 10
1.145877
 11
1.143807
 20
1.335831
 21
1.329853
  0
LINE
  8
APS_GEOMETRY
 10
1.143807
 11
1.141721
 20
1.329853
 21
1.323884
  0
LINE
  8
APS_GEOMETRY
 10
1.141721
 11
1.139618
 20
1.323884
 21
1.317924
  0
LINE
  8
APS_GEOMETRY
 10
1.139618
 11
1.13856
 20
1.317924
 21
1.314947
  0
LINE
  8
APS_GEOMETRY
 10
1.13856
 11
1.137498
 20
1.314947
 21
1.311973
  0
LINE
  8
APS_GEOMETRY
 10
1.137498
 11
1.13643
 20
1.311973
 21
1.309002
  0
LINE
  8
APS_GEOMETRY
 10
1.13643
 11
1.135358
 20
1.309002
 21
1.306033
  0
LINE
  8
APS_GEOMETRY
 10
1.135358
 11
1.134281
 20
1.306033
 21
1.303066
  0
LINE
  8
APS_GEOMETRY
 10
1.134281
 11
1.133199
 20
1.303066
 21
1.300102
  0
LINE
  8
APS_GEOMETRY
 10
1.133199
 11
1.132113
 20
1.300102
 21
1.297141
  0
LINE
  8
APS_GEOMETRY
 10
1.132113
 11
1.13102
 20
1.297141
 21
1.294182
  0
LINE
  8
APS_GEOMETRY
 10
1.13102
 11
1.129923
 20
1.294182
 21
1.291226
  0
LINE
  8
APS_GEOMETRY
 10
1.129923
 11
1.12882
 20
1.291226
 21
1.288273
  0
LINE
  8
APS_GEOMETRY
 10
1.12882
 11
1.127712
 20
1.288273
 21
1.285322
  0
LINE
  8
APS_GEOMETRY
 10
1.127712
 11
1.126598
 20
1.285322
 21
1.282374
  0
LINE
  8
APS_GEOMETRY
 10
1.126598
 11
1.125479
 20
1.282374
 21
1.279429
  0
LINE
  8
APS_GEOMETRY
 10
1.125479
 11
1.124353
 20
1.279429
 21
1.276487
  0
LINE
  8
APS_GEOMETRY
 10
1.124353
 11
1.123222
 20
1.276487
 21
1.273548
  0
LINE
  8
APS_GEOMETRY
 10
1.123222
 11
1.122085
 20
1.273548
 21
1.270612
  0
LINE
  8
APS_GEOMETRY
 10
1.122085
 11
1.120941
 20
1.270612
 21
1.267679
  0
LINE
  8
APS_GEOMETRY
 10
1.120941
 11
1.119791
 20
1.267679
 21
1.264749
  0
LINE
  8
APS_GEOMETRY
 10
1.119791
 11
1.118635
 20
1.264749
 21
1.261822
  0
LINE
  8
APS_GEOMETRY
 10
1.118635
 11
1.117473
 20
1.261822
 21
1.258898
  0
LINE
  8
APS_GEOMETRY
 10
1.117473
 11
1.116304
 20
1.258898
 21
1.255977
  0
LINE
  8
APS_GEOMETRY
 10
1.116304
 11
1.115128
 20
1.255977
 21
1.25306
  0
LINE
  8
APS_GEOMETRY
 10
1.115128
 11
1.113946
 20
1.25306
 21
1.250146
  0
LINE
  8
APS_GEOMETRY
 10
1.113946
 11
1.112757
 20
1.250146
 21
1.247235
  0
LINE
  8
APS_GEOMETRY
 10
1.112757
 11
1.111561
 20
1.247235
 21
1.244327
  0
LINE
  8
APS_GEOMETRY
 10
1.111561
 11
1.110357
 20
1.244327
 21
1.241423
  0
LINE
  8
APS_GEOMETRY
 10
1.110357
 11
1.109147
 20
1.241423
 21
1.238522
  0
LINE
  8
APS_GEOMETRY
 10
1.109147
 11
1.107929
 20
1.238522
 21
1.235624
  0
LINE
  8
APS_GEOMETRY
 10
1.107929
 11
1.106704
 20
1.235624
 21
1.23273
  0
LINE
  8
APS_GEOMETRY
 10
1.106704
 11
1.105472
 20
1.23273
 21
1.229839
  0
LINE
  8
APS_GEOMETRY
 10
1.105472
 11
1.104232
 20
1.229839
 21
1.226952
  0
LINE
  8
APS_GEOMETRY
 10
1.104232
 11
1.102984
 20
1.226952
 21
1.224069
  0
LINE
  8
APS_GEOMETRY
 10
1.102984
 11
1.101728
 20
1.224069
 21
1.221189
  0
LINE
  8
APS_GEOMETRY
 10
1.101728
 11
1.100465
 20
1.221189
 21
1.218313
  0
LINE
  8
APS_GEOMETRY
 10
1.100465
 11
1.099193
 20
1.218313
 21
1.21544
  0
LINE
  8
APS_GEOMETRY
 10
1.099193
 11
1.097913
 20
1.21544
 21
1.212572
  0
LINE
  8
APS_GEOMETRY
 10
1.097913
 11
1.096625
 20
1.212572
 21
1.209707
  0
LINE
  8
APS_GEOMETRY
 10
1.096625
 11
1.095329
 20
1.209707
 21
1.206846
  0
LINE
  8
APS_GEOMETRY
 10
1.095329
 11
1.094024
 20
1.206846
 21
1.203988
  0
LINE
  8
APS_GEOMETRY
 10
1.094024
 11
1.092711
 20
1.203988
 21
1.201135
  0
LINE
  8
APS_GEOMETRY
 10
1.092711
 11
1.091389
 20
1.201135
 21
1.198285
  0
LINE
  8
APS_GEOMETRY
 10
1.091389
 11
1.090059
 20
1.198285
 21
1.19544
  0
LINE
  8
APS_GEOMETRY
 10
1.090059
 11
1.088719
 20
1.19544
 21
1.192598
  0
LINE
  8
APS_GEOMETRY
 10
1.088719
 11
1.087371
 20
1.192598
 21
1.189761
  0
LINE
  8
APS_GEOMETRY
 10
1.087371
 11
1.086014
 20
1.189761
 21
1.186928
  0
LINE
  8
APS_GEOMETRY
 10
1.086014
 11
1.084647
 20
1.186928
 21
1.184098
  0
LINE
  8
APS_GEOMETRY
 10
1.084647
 11
1.083271
 20
1.184098
 21
1.181273
  0
LINE
  8
APS_GEOMETRY
 10
1.083271
 11
1.081886
 20
1.181273
 21
1.178453
  0
LINE
  8
APS_GEOMETRY
 10
1.081886
 11
1.080491
 20
1.178453
 21
1.175636
  0
LINE
  8
APS_GEOMETRY
 10
1.080491
 11
1.079087
 20
1.175636
 21
1.172824
  0
LINE
  8
APS_GEOMETRY
 10
1.079087
 11
1.077673
 20
1.172824
 21
1.170016
  0
LINE
  8
APS_GEOMETRY
 10
1.077673
 11
1.076249
 20
1.170016
 21
1.167212
  0
LINE
  8
APS_GEOMETRY
 10
1.076249
 11
1.074815
 20
1.167212
 21
1.164413
  0
LINE
  8
APS_GEOMETRY
 10
1.074815
 11
1.073371
 20
1.164413
 21
1.161618
  0
LINE
  8
APS_GEOMETRY
 10
1.073371
 11
1.071917
 20
1.161618
 21
1.158827
  0
LINE
  8
APS_GEOMETRY
 10
1.071917
 11
1.070453
 20
1.158827
 21
1.156042
  0
LINE
  8
APS_GEOMETRY
 10
1.070453
 11
1.068979
 20
1.156042
 21
1.15326
  0
LINE
  8
APS_GEOMETRY
 10
1.068979
 11
1.067494
 20
1.15326
 21
1.150484
  0
LINE
  8
APS_GEOMETRY
 10
1.067494
 11
1.065999
 20
1.150484
 21
1.147712
  0
LINE
  8
APS_GEOMETRY
 10
1.065999
 11
1.064493
 20
1.147712
 21
1.144944
  0
LINE
  8
APS_GEOMETRY
 10
1.064493
 11
1.062976
 20
1.144944
 21
1.142181
  0
LINE
  8
APS_GEOMETRY
 10
1.062976
 11
1.061448
 20
1.142181
 21
1.139424
  0
LINE
  8
APS_GEOMETRY
 10
1.061448
 11
1.05991
 20
1.139424
 21
1.13667
  0
LINE
  8
APS_GEOMETRY
 10
1.05991
 11
1.05836
 20
1.13667
 21
1.133922
  0
LINE
  8
APS_GEOMETRY
 10
1.05836
 11
1.056799
 20
1.133922
 21
1.131179
  0
LINE
  8
APS_GEOMETRY
 10
1.056799
 11
1.055227
 20
1.131179
 21
1.12844
  0
LINE
  8
APS_GEOMETRY
 10
1.055227
 11
1.053644
 20
1.12844
 21
1.125706
  0
LINE
  8
APS_GEOMETRY
 10
1.053644
 11
1.052049
 20
1.125706
 21
1.122978
  0
LINE
  8
APS_GEOMETRY
 10
1.052049
 11
1.050443
 20
1.122978
 21
1.120254
  0
LINE
  8
APS_GEOMETRY
 10
1.050443
 11
1.048824
 20
1.120254
 21
1.117535
  0
LINE
  8
APS_GEOMETRY
 10
1.048824
 11
1.047194
 20
1.117535
 21
1.114822
  0
LINE
  8
APS_GEOMETRY
 10
1.047194
 11
1.045553
 20
1.114822
 21
1.112114
  0
LINE
  8
APS_GEOMETRY
 10
1.045553
 11
1.043899
 20
1.112114
 21
1.10941
  0
LINE
  8
APS_GEOMETRY
 10
1.043899
 11
1.042233
 20
1.10941
 21
1.106712
  0
LINE
  8
APS_GEOMETRY
 10
1.042233
 11
1.040555
 20
1.106712
 21
1.10402
  0
LINE
  8
APS_GEOMETRY
 10
1.040555
 11
1.038864
 20
1.10402
 21
1.101332
  0
LINE
  8
APS_GEOMETRY
 10
1.038864
 11
1.037161
 20
1.101332
 21
1.09865
  0
LINE
  8
APS_GEOMETRY
 10
1.037161
 11
1.035446
 20
1.09865
 21
1.095973
  0
LINE
  8
APS_GEOMETRY
 10
1.035446
 11
1.033718
 20
1.095973
 21
1.093302
  0
LINE
  8
APS_GEOMETRY
 10
1.033718
 11
1.031977
 20
1.093302
 21
1.090636
  0
LINE
  8
APS_GEOMETRY
 10
1.031977
 11
1.030223
 20
1.090636
 21
1.087976
  0
LINE
  8
APS_GEOMETRY
 10
1.030223
 11
1.028457
 20
1.087976
 21
1.085321
  0
LINE
  8
APS_GEOMETRY
 10
1.028457
 11
1.026677
 20
1.085321
 21
1.082671
  0
LINE
  8
APS_GEOMETRY
 10
1.026677
 11
1.024884
 20
1.082671
 21
1.080028
  0
LINE
  8
APS_GEOMETRY
 10
1.024884
 11
1.023078
 20
1.080028
 21
1.07739
  0
LINE
  8
APS_GEOMETRY
 10
1.023078
 11
1.021259
 20
1.07739
 21
1.074757
  0
LINE
  8
APS_GEOMETRY
 10
1.021259
 11
1.019426
 20
1.074757
 21
1.07213
  0
LINE
  8
APS_GEOMETRY
 10
1.019426
 11
1.017579
 20
1.07213
 21
1.069509
  0
LINE
  8
APS_GEOMETRY
 10
1.017579
 11
1.015719
 20
1.069509
 21
1.066894
  0
LINE
  8
APS_GEOMETRY
 10
1.015719
 11
1.013845
 20
1.066894
 21
1.064285
  0
LINE
  8
APS_GEOMETRY
 10
1.013845
 11
1.011957
 20
1.064285
 21
1.061681
  0
LINE
  8
APS_GEOMETRY
 10
1.011957
 11
1.010055
 20
1.061681
 21
1.059084
  0
LINE
  8
APS_GEOMETRY
 10
1.010055
 11
1.008139
 20
1.059084
 21
1.056492
  0
LINE
  8
APS_GEOMETRY
 10
1.008139
 11
1.006209
 20
1.056492
 21
1.053907
  0
LINE
  8
APS_GEOMETRY
 10
1.006209
 11
1.004265
 20
1.053907
 21
1.051327
  0
LINE
  8
APS_GEOMETRY
 10
1.004265
 11
1.002306
 20
1.051327
 21
1.048753
  0
LINE
  8
APS_GEOMETRY
 10
1.002306
 11
1.000332
 20
1.048753
 21
1.046186
  0
LINE
  8
APS_GEOMETRY
 10
1.000332
 11
0.998344
 20
1.046186
 21
1.043625
  0
LINE
  8
APS_GEOMETRY
 10
0.998344
 11
0.996341
 20
1.043625
 21
1.04107
  0
LINE
  8
APS_GEOMETRY
 10
0.996341
 11
0.994324
 20
1.04107
 21
1.038521
  0
LINE
  8
APS_GEOMETRY
 10
0.994324
 11
0.992291
 20
1.038521
 21
1.035978
  0
LINE
  8
APS_GEOMETRY
 10
0.992291
 11
0.990243
 20
1.035978
 21
1.033442
  0
LINE
  8
APS_GEOMETRY
 10
0.990243
 11
0.988181
 20
1.033442
 21
1.030912
  0
LINE
  8
APS_GEOMETRY
 10
0.988181
 11
0.986103
 20
1.030912
 21
1.028388
  0
LINE
  8
APS_GEOMETRY
 10
0.986103
 11
0.984009
 20
1.028388
 21
1.025871
  0
LINE
  8
APS_GEOMETRY
 10
0.984009
 11
0.9819
 20
1.025871
 21
1.02336
  0
LINE
  8
APS_GEOMETRY
 10
0.9819
 11
0.979776
 20
1.02336
 21
1.020856
  0
LINE
  8
APS_GEOMETRY
 10
0.979776
 11
0.977636
 20
1.020856
 21
1.018358
  0
LINE
  8
APS_GEOMETRY
 10
0.977636
 11
0.97548
 20
1.018358
 21
1.015867
  0
LINE
  8
APS_GEOMETRY
 10
0.97548
 11
0.973308
 20
1.015867
 21
1.013382
  0
LINE
  8
APS_GEOMETRY
 10
0.973308
 11
0.97112
 20
1.013382
 21
1.010904
  0
LINE
  8
APS_GEOMETRY
 10
0.97112
 11
0.968916
 20
1.010904
 21
1.008433
  0
LINE
  8
APS_GEOMETRY
 10
0.968916
 11
0.966696
 20
1.008433
 21
1.005968
  0
LINE
  8
APS_GEOMETRY
 10
0.966696
 11
0.96446
 20
1.005968
 21
1.003511
  0
LINE
  8
APS_GEOMETRY
 10
0.96446
 11
0.962207
 20
1.003511
 21
1.00106
  0
LINE
  8
APS_GEOMETRY
 10
0.962207
 11
0.959937
 20
1.00106
 21
0.998615
  0
LINE
  8
APS_GEOMETRY
 10
0.959937
 11
0.957651
 20
0.998615
 21
0.996178
  0
LINE
  8
APS_GEOMETRY
 10
0.957651
 11
0.955349
 20
0.996178
 21
0.993748
  0
LINE
  8
APS_GEOMETRY
 10
0.955349
 11
0.953029
 20
0.993748
 21
0.991324
  0
LINE
  8
APS_GEOMETRY
 10
0.953029
 11
0.950693
 20
0.991324
 21
0.988908
  0
LINE
  8
APS_GEOMETRY
 10
0.950693
 11
0.948339
 20
0.988908
 21
0.986499
  0
LINE
  8
APS_GEOMETRY
 10
0.948339
 11
0.945968
 20
0.986499
 21
0.984096
  0
LINE
  8
APS_GEOMETRY
 10
0.945968
 11
0.943581
 20
0.984096
 21
0.981701
  0
LINE
  8
APS_GEOMETRY
 10
0.943581
 11
0.941175
 20
0.981701
 21
0.979313
  0
LINE
  8
APS_GEOMETRY
 10
0.941175
 11
0.938752
 20
0.979313
 21
0.976932
  0
LINE
  8
APS_GEOMETRY
 10
0.938752
 11
0.936312
 20
0.976932
 21
0.974559
  0
LINE
  8
APS_GEOMETRY
 10
0.936312
 11
0.933854
 20
0.974559
 21
0.972192
  0
LINE
  8
APS_GEOMETRY
 10
0.933854
 11
0.931378
 20
0.972192
 21
0.969833
  0
LINE
  8
APS_GEOMETRY
 10
0.931378
 11
0.928885
 20
0.969833
 21
0.967481
  0
LINE
  8
APS_GEOMETRY
 10
0.928885
 11
0.926373
 20
0.967481
 21
0.965137
  0
LINE
  8
APS_GEOMETRY
 10
0.926373
 11
0.923843
 20
0.965137
 21
0.9628
  0
LINE
  8
APS_GEOMETRY
 10
0.923843
 11
0.921295
 20
0.9628
 21
0.960471
  0
LINE
  8
APS_GEOMETRY
 10
0.921295
 11
0.918729
 20
0.960471
 21
0.958149
  0
LINE
  8
APS_GEOMETRY
 10
0.918729
 11
0.916144
 20
0.958149
 21
0.955834
  0
LINE
  8
APS_GEOMETRY
 10
0.916144
 11
0.913541
 20
0.955834
 21
0.953527
  0
LINE
  8
APS_GEOMETRY
 10
0.913541
 11
0.910919
 20
0.953527
 21
0.951228
  0
LINE
  8
APS_GEOMETRY
 10
0.910919
 11
0.908279
 20
0.951228
 21
0.948937
  0
LINE
  8
APS_GEOMETRY
 10
0.908279
 11
0.905619
 20
0.948937
 21
0.946653
  0
LINE
  8
APS_GEOMETRY
 10
0.905619
 11
0.902941
 20
0.946653
 21
0.944377
  0
LINE
  8
APS_GEOMETRY
 10
0.902941
 11
0.900244
 20
0.944377
 21
0.942108
  0
LINE
  8
APS_GEOMETRY
 10
0.900244
 11
0.897527
 20
0.942108
 21
0.939848
  0
LINE
  8
APS_GEOMETRY
 10
0.897527
 11
0.894791
 20
0.939848
 21
0.937595
  0
LINE
  8
APS_GEOMETRY
 10
0.894791
 11
0.892036
 20
0.937595
 21
0.93535
  0
LINE
  8
APS_GEOMETRY
 10
0.892036
 11
0.889262
 20
0.93535
 21
0.933113
  0
LINE
  8
APS_GEOMETRY
 10
0.889262
 11
0.886468
 20
0.933113
 21
0.930884
  0
LINE
  8
APS_GEOMETRY
 10
0.886468
 11
0.883654
 20
0.930884
 21
0.928663
  0
LINE
  8
APS_GEOMETRY
 10
0.883654
 11
0.88082
 20
0.928663
 21
0.92645
  0
LINE
  8
APS_GEOMETRY
 10
0.88082
 11
0.877967
 20
0.92645
 21
0.924245
  0
LINE
  8
APS_GEOMETRY
 10
0.877967
 11
0.875093
 20
0.924245
 21
0.922049
  0
LINE
  8
APS_GEOMETRY
 10
0.875093
 11
0.8722
 20
0.922049
 21
0.91986
  0
LINE
  8
APS_GEOMETRY
 10
0.8722
 11
0.869286
 20
0.91986
 21
0.91768
  0
LINE
  8
APS_GEOMETRY
 10
0.869286
 11
0.866352
 20
0.91768
 21
0.915508
  0
LINE
  8
APS_GEOMETRY
 10
0.866352
 11
0.863398
 20
0.915508
 21
0.913344
  0
LINE
  8
APS_GEOMETRY
 10
0.863398
 11
0.860423
 20
0.913344
 21
0.911188
  0
LINE
  8
APS_GEOMETRY
 10
0.860423
 11
0.857427
 20
0.911188
 21
0.909041
  0
LINE
  8
APS_GEOMETRY
 10
0.857427
 11
0.854411
 20
0.909041
 21
0.906902
  0
LINE
  8
APS_GEOMETRY
 10
0.854411
 11
0.851374
 20
0.906902
 21
0.904772
  0
LINE
  8
APS_GEOMETRY
 10
0.851374
 11
0.848316
 20
0.904772
 21
0.90265
  0
LINE
  8
APS_GEOMETRY
 10
0.848316
 11
0.845237
 20
0.90265
 21
0.900536
  0
LINE
  8
APS_GEOMETRY
 10
0.845237
 11
0.842136
 20
0.900536
 21
0.898431
  0
LINE
  8
APS_GEOMETRY
 10
0.842136
 11
0.839015
 20
0.898431
 21
0.896335
  0
LINE
  8
APS_GEOMETRY
 10
0.839015
 11
0.835872
 20
0.896335
 21
0.894247
  0
LINE
  8
APS_GEOMETRY
 10
0.835872
 11
0.832708
 20
0.894247
 21
0.892168
  0
LINE
  8
APS_GEOMETRY
 10
0.832708
 11
0.829522
 20
0.892168
 21
0.890098
  0
LINE
  8
APS_GEOMETRY
 10
0.829522
 11
0.826314
 20
0.890098
 21
0.888036
  0
LINE
  8
APS_GEOMETRY
 10
0.826314
 11
0.823085
 20
0.888036
 21
0.885984
  0
LINE
  8
APS_GEOMETRY
 10
0.823085
 11
0.819834
 20
0.885984
 21
0.88394
  0
LINE
  8
APS_GEOMETRY
 10
0.819834
 11
0.816561
 20
0.88394
 21
0.881905
  0
LINE
  8
APS_GEOMETRY
 10
0.816561
 11
0.813266
 20
0.881905
 21
0.879878
  0
LINE
  8
APS_GEOMETRY
 10
0.813266
 11
0.809948
 20
0.879878
 21
0.877861
  0
LINE
  8
APS_GEOMETRY
 10
0.809948
 11
0.806608
 20
0.877861
 21
0.875853
  0
LINE
  8
APS_GEOMETRY
 10
0.806608
 11
0.803246
 20
0.875853
 21
0.873853
  0
LINE
  8
APS_GEOMETRY
 10
0.803246
 11
0.799862
 20
0.873853
 21
0.871863
  0
LINE
  8
APS_GEOMETRY
 10
0.799862
 11
0.796455
 20
0.871863
 21
0.869882
  0
LINE
  8
APS_GEOMETRY
 10
0.796455
 11
0.793025
 20
0.869882
 21
0.86791
  0
LINE
  8
APS_GEOMETRY
 10
0.793025
 11
0.789572
 20
0.86791
 21
0.865947
  0
LINE
  8
APS_GEOMETRY
 10
0.789572
 11
0.786096
 20
0.865947
 21
0.863993
  0
LINE
  8
APS_GEOMETRY
 10
0.786096
 11
0.782597
 20
0.863993
 21
0.862049
  0
LINE
  8
APS_GEOMETRY
 10
0.782597
 11
0.779075
 20
0.862049
 21
0.860113
  0
LINE
  8
APS_GEOMETRY
 10
0.779075
 11
0.77553
 20
0.860113
 21
0.858188
  0
LINE
  8
APS_GEOMETRY
 10
0.77553
 11
0.771962
 20
0.858188
 21
0.856271
  0
LINE
  8
APS_GEOMETRY
 10
0.771962
 11
0.76837
 20
0.856271
 21
0.854364
  0
LINE
  8
APS_GEOMETRY
 10
0.76837
 11
0.764755
 20
0.854364
 21
0.852466
  0
LINE
  8
APS_GEOMETRY
 10
0.764755
 11
0.761115
 20
0.852466
 21
0.850578
  0
LINE
  8
APS_GEOMETRY
 10
0.761115
 11
0.757452
 20
0.850578
 21
0.848699
  0
LINE
  8
APS_GEOMETRY
 10
0.757452
 11
0.753766
 20
0.848699
 21
0.84683
  0
LINE
  8
APS_GEOMETRY
 10
0.753766
 11
0.750055
 20
0.84683
 21
0.844971
  0
LINE
  8
APS_GEOMETRY
 10
0.750055
 11
0.74632
 20
0.844971
 21
0.843121
  0
LINE
  8
APS_GEOMETRY
 10
0.74632
 11
0.742561
 20
0.843121
 21
0.841281
  0
LINE
  8
APS_GEOMETRY
 10
0.742561
 11
0.738778
 20
0.841281
 21
0.83945
  0
LINE
  8
APS_GEOMETRY
 10
0.738778
 11
0.73497
 20
0.83945
 21
0.837629
  0
LINE
  8
APS_GEOMETRY
 10
0.73497
 11
0.731138
 20
0.837629
 21
0.835818
  0
LINE
  8
APS_GEOMETRY
 10
0.731138
 11
0.727281
 20
0.835818
 21
0.834017
  0
LINE
  8
APS_GEOMETRY
 10
0.727281
 11
0.7234
 20
0.834017
 21
0.832226
  0
LINE
  8
APS_GEOMETRY
 10
0.7234
 11
0.719493
 20
0.832226
 21
0.830444
  0
LINE
  8
APS_GEOMETRY
 10
0.719493
 11
0.715562
 20
0.830444
 21
0.828673
  0
LINE
  8
APS_GEOMETRY
 10
0.715562
 11
0.711606
 20
0.828673
 21
0.826911
  0
LINE
  8
APS_GEOMETRY
 10
0.711606
 11
0.707624
 20
0.826911
 21
0.82516
  0
LINE
  8
APS_GEOMETRY
 10
0.707624
 11
0.714653
 20
0.82516
 21
0.625133
  0
LINE
  8
CONSTRUCTION
 10
0.152615
 11
0.10065
 20
-1.038482
 21
-1.166909
  0
LINE
  8
CONSTRUCTION
 10
0.10065
 11
0.20458
 20
-1.166909
 21
-1.166909
  0
LINE
  8
CONSTRUCTION
 10
0.20458
 11
0.152615
 20
-1.166909
 21
-1.038482
  0
LINE
  8
CONSTRUCTION
 10
0.152615
 11
0.559547
 20
-1.038482
 21
-1.03848
  0
LINE
  8
CONSTRUCTION
 10
0.559547
 11
0.507582
 20
-1.03848
 21
-1.166908
  0
LINE
  8
CONSTRUCTION
 10
0.507582
 11
0.611512
 20
-1.166908
 21
-1.166908
  0
LINE
  8
CONSTRUCTION
 10
0.611512
 11
0.559547
 20
-1.166908
 21
-1.03848
  0
LINE
  8
CONSTRUCTION
 10
0.559547
 11
0.966478
 20
-1.03848
 21
-1.03848
  0
LINE
  8
CONSTRUCTION
 10
0.966478
 11
0.914513
 20
-1.03848
 21
-1.166908
  0
LINE
  8
CONSTRUCTION
 10
0.914513
 11
1.018442
 20
-1.166908
 21
-1.166908
  0
LINE
  8
CONSTRUCTION
 10
1.018442
 11
0.966478
 20
-1.166908
 21
-1.03848
  0
LINE
  8
CONSTRUCTION
 10
0.966478
 11
1.373408
 20
-1.03848
 21
-1.03848
  0
LINE
  8
CONSTRUCTION
 10
1.373408
 11
1.321443
 20
-1.03848
 21
-1.166908
  0
LINE
  8
CONSTRUCTION
 10
1.321443
 11
1.425373
 20
-1.166908
 21
-1.166908
  0
LINE
  8
CONSTRUCTION
 10
1.425373
 11
1.373408
 20
-1.166908
 21
-1.03848
  0
LINE
  8
CONSTRUCTION
 10
1.373408
 11
1.780281
 20
-1.03848
 21
-1.038482
  0
LINE
  8
CONSTRUCTION
 10
1.780281
 11
1.728316
 20
-1.038482
 21
-1.166909
  0
LINE
  8
CONSTRUCTION
 10
1.728316
 11
1.832246
 20
-1.166909
 21
-1.166909
  0
LINE
  8
CONSTRUCTION
 10
1.832246
 11
1.780281
 20
-1.166909
 21
-1.038482
  0
LINE
  8
CONSTRUCTION
 10
0.0
 11
4.0
 20
-1.561751
 21
-1.561751
  0
TEXT
  8
TEXT
 10
0.10065
 20
-1.405784
 30
0.0
 40
0.224
 50
0.0
  1
DOVETAIL DESIGNS
  0
TEXT
  8
TEXT
 10
2.276036
 20
-1.551751
 30
0.0
 40
0.099
 50
0.0
  1
& MILLWORK INC.
  0
TEXT
  8
TEXT
 10
1.092458
 20
-1.640461
 30
0.0
 40
0.07
 50
0.0
  1
Established 1979
  0
TEXT
  8
TEXT
 10
0.1
 20
-1.8
 30
0.0
 40
0.1
 50
0.0
  1
Phone: (406) 248-5010    Website: www.dovetailmt.com
  0
TEXT
  8
TEXT
 10
0.0
 20
-0.25
 30
0.0
 40
0.15625
 50
0.0
  1
CN141
  0
TEXT
  8
TEXT
 10
0.0
 20
-0.5
 30
0.0
 40
0.1
 50
0.0
  1
1-25/32"x2-11/16"
  0
TEXT
  8
TEXT
 10
0.0
 20
-0.65
 30
0.0
 40
0.1
 50
0.0
  1
(9/16"x3-1/4")
  0
ENDSEC
  0
EOF
