  0
SECTION
  2
ENTITIES
  0
LINE
  8
APS_GEOMETRY
 10
0.0
 11
0.199749
 20
0.0
 21
0.0
  0
ARC
  8
APS_GEOMETRY
 10
0.19975
 20
0.124
 40
0.124
 50
269.999744
 51
357.739002
  0
LINE
  8
APS_GEOMETRY
 10
0.323653
 11
0.323653
 20
0.119108
 21
0.235916
  0
LINE
  8
APS_GEOMETRY
 10
0.323653
 11
0.390674
 20
0.235916
 21
0.235915
  0
ARC
  8
APS_GEOMETRY
 10
0.390674
 20
0.389017
 40
0.153102
 50
270.000153
 51
358.873487
  0
LINE
  8
APS_GEOMETRY
 10
0.543746
 11
0.543746
 20
0.386007
 21
0.460387
  0
LINE
  8
APS_GEOMETRY
 10
0.543746
 11
0.623667
 20
0.460387
 21
0.460387
  0
ARC
  8
APS_GEOMETRY
 10
0.615993
 20
0.66056
 40
0.20032
 50
272.195425
 51
356.091575
  0
ARC
  8
APS_GEOMETRY
 10
1.554393
 20
0.59645
 40
0.740267
 50
95.168735
 51
176.091762
  0
LINE
  8
APS_GEOMETRY
 10
1.487703
 11
1.494647
 20
1.333707
 21
1.458515
  0
ARC
  8
APS_GEOMETRY
 10
0.874373
 20
2.868335
 40
1.540238
 50
293.747922
 51
327.038324
  0
ARC
  8
APS_GEOMETRY
 10
0.826594
 20
2.891655
 40
1.593027
 50
327.269561
 51
359.477532
  0
ARC
  8
APS_GEOMETRY
 10
2.421728
 20
2.844591
 40
0.03261
 50
90.084476
 51
93.821965
  0
ARC
  8
APS_GEOMETRY
 10
2.421506
 20
3.001201
 40
0.124
 50
270.080512
 51
356.7046
  0
LINE
  8
APS_GEOMETRY
 10
2.545301
 11
2.5533
 20
2.994073
 21
3.119539
  0
ARC
  8
APS_GEOMETRY
 10
2.560586
 20
2.8264
 40
0.293229
 50
90.070286
 51
91.423696
  0
ARC
  8
APS_GEOMETRY
 10
2.560226
 20
3.243629
 40
0.124
 50
270.0
 51
356.806558
  0
LINE
  8
APS_GEOMETRY
 10
2.684033
 11
2.684033
 20
3.236721
 21
3.632226
  0
LINE
  8
APS_GEOMETRY
 10
2.684033
 11
2.441543
 20
3.632226
 21
3.632226
  0
LINE
  8
APS_GEOMETRY
 10
2.441543
 11
0.000028
 20
3.632226
 21
0.50723
  0
LINE
  8
APS_GEOMETRY
 10
0.000028
 11
0.0
 20
0.50723
 21
0.007212
  0
LINE
  8
CONSTRUCTION
 10
0.152615
 11
0.10065
 20
-1.038482
 21
-1.166909
  0
LINE
  8
CONSTRUCTION
 10
0.10065
 11
0.20458
 20
-1.166909
 21
-1.166909
  0
LINE
  8
CONSTRUCTION
 10
0.20458
 11
0.152615
 20
-1.166909
 21
-1.038482
  0
LINE
  8
CONSTRUCTION
 10
0.152615
 11
0.559547
 20
-1.038482
 21
-1.03848
  0
LINE
  8
CONSTRUCTION
 10
0.559547
 11
0.507582
 20
-1.03848
 21
-1.166908
  0
LINE
  8
CONSTRUCTION
 10
0.507582
 11
0.611512
 20
-1.166908
 21
-1.166908
  0
LINE
  8
CONSTRUCTION
 10
0.611512
 11
0.559547
 20
-1.166908
 21
-1.03848
  0
LINE
  8
CONSTRUCTION
 10
0.559547
 11
0.966478
 20
-1.03848
 21
-1.03848
  0
LINE
  8
CONSTRUCTION
 10
0.966478
 11
0.914513
 20
-1.03848
 21
-1.166908
  0
LINE
  8
CONSTRUCTION
 10
0.914513
 11
1.018442
 20
-1.166908
 21
-1.166908
  0
LINE
  8
CONSTRUCTION
 10
1.018442
 11
0.966478
 20
-1.166908
 21
-1.03848
  0
LINE
  8
CONSTRUCTION
 10
0.966478
 11
1.373408
 20
-1.03848
 21
-1.03848
  0
LINE
  8
CONSTRUCTION
 10
1.373408
 11
1.321443
 20
-1.03848
 21
-1.166908
  0
LINE
  8
CONSTRUCTION
 10
1.321443
 11
1.425373
 20
-1.166908
 21
-1.166908
  0
LINE
  8
CONSTRUCTION
 10
1.425373
 11
1.373408
 20
-1.166908
 21
-1.03848
  0
LINE
  8
CONSTRUCTION
 10
1.373408
 11
1.780281
 20
-1.03848
 21
-1.038482
  0
LINE
  8
CONSTRUCTION
 10
1.780281
 11
1.728316
 20
-1.038482
 21
-1.166909
  0
LINE
  8
CONSTRUCTION
 10
1.728316
 11
1.832246
 20
-1.166909
 21
-1.166909
  0
LINE
  8
CONSTRUCTION
 10
1.832246
 11
1.780281
 20
-1.166909
 21
-1.038482
  0
LINE
  8
CONSTRUCTION
 10
0.0
 11
4.0
 20
-1.561751
 21
-1.561751
  0
TEXT
  8
TEXT
 10
0.10065
 20
-1.405784
 30
0.0
 40
0.224
 50
0.0
  1
DOVETAIL DESIGNS
  0
TEXT
  8
TEXT
 10
2.276036
 20
-1.551751
 30
0.0
 40
0.099
 50
0.0
  1
& MILLWORK INC.
  0
TEXT
  8
TEXT
 10
1.092458
 20
-1.640461
 30
0.0
 40
0.07
 50
0.0
  1
Established 1979
  0
TEXT
  8
TEXT
 10
0.1
 20
-1.8
 30
0.0
 40
0.1
 50
0.0
  1
Phone: (406) 248-5010    Website: www.dovetailmt.com
  0
TEXT
  8
TEXT
 10
0.0
 20
-0.65
 30
0.0
 40
0.1
 50
0.0
  1
(3/4"x4-1/2")
  0
TEXT
  8
TEXT
 10
0.0
 20
-0.5
 30
0.0
 40
0.1
 50
0.0
  1
2-11/16"x3-5/8"
  0
TEXT
  8
TEXT
 10
0.0
 20
-0.25
 30
0.0
 40
0.15625
 50
0.0
  1
CN140
  0
ENDSEC
  0
EOF
