  0
SECTION
  2
ENTITIES
  0
ARC
  8
APS_GEOMETRY
 10
0.494932
 20
0.344647
 40
0.330662
 50
182.690027
 51
206.54794
  0
ARC
  8
APS_GEOMETRY
 10
0.523177
 20
0.358759
 40
0.362236
 50
206.548029
 51
225.151755
  0
ARC
  8
APS_GEOMETRY
 10
0.582723
 20
0.418621
 40
0.446671
 50
225.151685
 51
238.075614
  0
ARC
  8
APS_GEOMETRY
 10
0.487623
 20
0.265981
 40
0.266829
 50
238.075509
 51
253.73778
  0
ARC
  8
APS_GEOMETRY
 10
0.481688
 20
0.245635
 40
0.245635
 50
253.737835
 51
283.25271
  0
ARC
  8
APS_GEOMETRY
 10
0.45162
 20
0.373294
 40
0.376787
 50
283.252951
 51
304.497099
  0
ARC
  8
APS_GEOMETRY
 10
0.37112
 20
0.490441
 40
0.518927
 50
304.496738
 51
317.962642
  0
ARC
  8
APS_GEOMETRY
 10
-0.008012
 20
0.83227
 40
1.029405
 50
317.962245
 51
326.048723
  0
ARC
  8
APS_GEOMETRY
 10
-0.053663
 20
0.862987
 40
1.084429
 50
326.049559
 51
332.516907
  0
ARC
  8
APS_GEOMETRY
 10
-0.74225
 20
1.221187
 40
1.860611
 50
332.516824
 51
336.913461
  0
ARC
  8
APS_GEOMETRY
 10
19.547217
 20
-7.427376
 40
20.19523
 50
156.425891
 51
156.913447
  0
ARC
  8
APS_GEOMETRY
 10
2.558428
 20
-0.014315
 40
1.659523
 50
153.19173
 51
156.425314
  0
ARC
  8
APS_GEOMETRY
 10
2.751998
 20
-0.112105
 40
1.876392
 50
149.122541
 51
153.192375
  0
ARC
  8
APS_GEOMETRY
 10
2.710388
 20
-0.087244
 40
1.827921
 50
144.96585
 51
149.122004
  0
ARC
  8
APS_GEOMETRY
 10
2.697302
 20
-0.07805
 40
1.811928
 50
140.698916
 51
144.966381
  0
ARC
  8
APS_GEOMETRY
 10
2.562072
 20
0.03261
 40
1.637192
 50
136.064682
 51
140.698109
  0
ARC
  8
APS_GEOMETRY
 10
2.583112
 20
0.012372
 40
1.666385
 50
131.526384
 51
136.065531
  0
ARC
  8
APS_GEOMETRY
 10
2.6692
 20
-0.084862
 40
1.796253
 50
127.242354
 51
131.525988
  0
ARC
  8
APS_GEOMETRY
 10
2.706087
 20
-0.13339
 40
1.857208
 50
122.987777
 51
127.242234
  0
ARC
  8
APS_GEOMETRY
 10
2.506132
 20
0.174677
 40
1.489938
 50
117.991839
 51
122.988183
  0
ARC
  8
APS_GEOMETRY
 10
2.568536
 20
0.057266
 40
1.622903
 50
112.285666
 51
117.99174
  0
ARC
  8
APS_GEOMETRY
 10
2.616058
 20
-0.058709
 40
1.748237
 50
102.914442
 51
112.285392
  0
LINE
  8
APS_GEOMETRY
 10
2.225334
 11
2.225334
 20
1.645306
 21
1.995515
  0
LINE
  8
APS_GEOMETRY
 10
2.225334
 11
1.488132
 20
1.995515
 21
1.980732
  0
LINE
  8
APS_GEOMETRY
 10
1.488132
 11
0.0
 20
1.980732
 21
0.4926
  0
LINE
  8
APS_GEOMETRY
 10
0.0
 11
0.0
 20
0.4926
 21
0.360017
  0
LINE
  8
APS_GEOMETRY
 10
0.0
 11
0.164634
 20
0.360017
 21
0.329128
  0
LINE
  8
CONSTRUCTION
 10
0.152615
 11
0.10065
 20
-1.038482
 21
-1.166909
  0
LINE
  8
CONSTRUCTION
 10
0.10065
 11
0.20458
 20
-1.166909
 21
-1.166909
  0
LINE
  8
CONSTRUCTION
 10
0.20458
 11
0.152615
 20
-1.166909
 21
-1.038482
  0
LINE
  8
CONSTRUCTION
 10
0.152615
 11
0.559547
 20
-1.038482
 21
-1.03848
  0
LINE
  8
CONSTRUCTION
 10
0.559547
 11
0.507582
 20
-1.03848
 21
-1.166908
  0
LINE
  8
CONSTRUCTION
 10
0.507582
 11
0.611512
 20
-1.166908
 21
-1.166908
  0
LINE
  8
CONSTRUCTION
 10
0.611512
 11
0.559547
 20
-1.166908
 21
-1.03848
  0
LINE
  8
CONSTRUCTION
 10
0.559547
 11
0.966478
 20
-1.03848
 21
-1.03848
  0
LINE
  8
CONSTRUCTION
 10
0.966478
 11
0.914513
 20
-1.03848
 21
-1.166908
  0
LINE
  8
CONSTRUCTION
 10
0.914513
 11
1.018442
 20
-1.166908
 21
-1.166908
  0
LINE
  8
CONSTRUCTION
 10
1.018442
 11
0.966478
 20
-1.166908
 21
-1.03848
  0
LINE
  8
CONSTRUCTION
 10
0.966478
 11
1.373408
 20
-1.03848
 21
-1.03848
  0
LINE
  8
CONSTRUCTION
 10
1.373408
 11
1.321443
 20
-1.03848
 21
-1.166908
  0
LINE
  8
CONSTRUCTION
 10
1.321443
 11
1.425373
 20
-1.166908
 21
-1.166908
  0
LINE
  8
CONSTRUCTION
 10
1.425373
 11
1.373408
 20
-1.166908
 21
-1.03848
  0
LINE
  8
CONSTRUCTION
 10
1.373408
 11
1.780281
 20
-1.03848
 21
-1.038482
  0
LINE
  8
CONSTRUCTION
 10
1.780281
 11
1.728316
 20
-1.038482
 21
-1.166909
  0
LINE
  8
CONSTRUCTION
 10
1.728316
 11
1.832246
 20
-1.166909
 21
-1.166909
  0
LINE
  8
CONSTRUCTION
 10
1.832246
 11
1.780281
 20
-1.166909
 21
-1.038482
  0
LINE
  8
CONSTRUCTION
 10
0.0
 11
4.0
 20
-1.561751
 21
-1.561751
  0
TEXT
  8
TEXT
 10
0.10065
 20
-1.405784
 30
0.0
 40
0.224
 50
0.0
  1
DOVETAIL DESIGNS
  0
TEXT
  8
TEXT
 10
2.276036
 20
-1.551751
 30
0.0
 40
0.099
 50
0.0
  1
& MILLWORK INC.
  0
TEXT
  8
TEXT
 10
1.092458
 20
-1.640461
 30
0.0
 40
0.07
 50
0.0
  1
Established 1979
  0
TEXT
  8
TEXT
 10
0.1
 20
-1.8
 30
0.0
 40
0.1
 50
0.0
  1
Phone: (406) 248-5010    Website: www.dovetailmt.com
  0
TEXT
  8
TEXT
 10
0.0
 20
-0.65
 30
0.0
 40
0.1
 50
0.0
  1
(25/32"x2-23/32")
  0
TEXT
  8
TEXT
 10
0.0
 20
-0.5
 30
0.0
 40
0.1
 50
0.0
  1
2-1/4"x1-19/32"
  0
TEXT
  8
TEXT
 10
0.0
 20
-0.25
 30
0.0
 40
0.15625
 50
0.0
  1
CN125
  0
ENDSEC
  0
EOF
