  0
SECTION
  2
ENTITIES
  0
ARC
  8
APS_GEOMETRY
 10
8.036541
 20
-2.98402
 40
9.062335
 50
122.349086
 51
123.412096
  0
ARC
  8
APS_GEOMETRY
 10
6.697213
 20
-0.953808
 40
6.630143
 50
123.411847
 51
124.650536
  0
ARC
  8
APS_GEOMETRY
 10
5.899331
 20
0.200648
 40
5.226795
 50
124.650783
 51
127.735786
  0
ARC
  8
APS_GEOMETRY
 10
4.545223
 20
1.950403
 40
3.014273
 50
127.735828
 51
131.724993
  0
ARC
  8
APS_GEOMETRY
 10
4.13443
 20
2.411058
 40
2.397059
 50
131.724921
 51
136.586656
  0
ARC
  8
APS_GEOMETRY
 10
3.693261
 20
2.828447
 40
1.789734
 50
136.586685
 51
141.996076
  0
ARC
  8
APS_GEOMETRY
 10
3.649874
 20
2.862346
 40
1.734674
 50
141.996014
 51
147.291219
  0
ARC
  8
APS_GEOMETRY
 10
3.943177
 20
2.673983
 40
2.083253
 50
147.291168
 51
151.759755
  0
ARC
  8
APS_GEOMETRY
 10
4.018042
 20
2.633801
 40
2.16822
 50
151.760384
 51
155.982861
  0
ARC
  8
APS_GEOMETRY
 10
4.162659
 20
2.569331
 40
2.326556
 50
155.982187
 51
160.100935
  0
ARC
  8
APS_GEOMETRY
 10
4.321101
 20
2.51198
 40
2.495059
 50
160.100961
 51
163.970938
  0
ARC
  8
APS_GEOMETRY
 10
4.847667
 20
2.360718
 40
3.04292
 50
163.971245
 51
167.489555
  0
ARC
  8
APS_GEOMETRY
 10
5.242954
 20
2.272982
 40
3.447827
 50
167.489125
 51
170.599572
  0
ARC
  8
APS_GEOMETRY
 10
6.381644
 20
2.084481
 40
4.602014
 50
170.599777
 51
173.286893
  0
ARC
  8
APS_GEOMETRY
 10
6.706142
 20
2.046323
 40
4.928747
 50
173.287314
 51
175.216832
  0
ARC
  8
APS_GEOMETRY
 10
71.472683
 20
-3.373623
 40
69.921675
 50
175.216417
 51
175.460962
  0
ARC
  8
APS_GEOMETRY
 10
-15.539392
 20
3.534016
 40
17.364158
 50
355.012598
 51
355.461009
  0
ARC
  8
APS_GEOMETRY
 10
-6.505778
 20
2.74563
 40
8.296207
 50
354.213815
 51
355.012934
  0
ARC
  8
APS_GEOMETRY
 10
-4.314309
 20
2.523625
 40
6.093522
 50
351.607248
 51
354.213237
  0
ARC
  8
APS_GEOMETRY
 10
-1.905841
 20
2.168274
 40
3.65898
 50
347.687039
 51
351.607406
  0
ARC
  8
APS_GEOMETRY
 10
-1.344839
 20
2.045804
 40
3.084766
 50
342.467347
 51
347.687376
  0
ARC
  8
APS_GEOMETRY
 10
-0.676926
 20
1.834803
 40
2.384317
 50
336.000018
 51
342.467128
  0
ARC
  8
APS_GEOMETRY
 10
-0.20674
 20
1.62547
 40
1.869637
 50
330.340242
 51
335.999811
  0
ARC
  8
APS_GEOMETRY
 10
-0.065085
 20
1.544802
 40
1.706623
 50
324.584163
 51
330.340271
  0
ARC
  8
APS_GEOMETRY
 10
-0.004856
 20
1.50197
 40
1.632717
 50
318.727104
 51
324.584311
  0
ARC
  8
APS_GEOMETRY
 10
0.104938
 20
1.405604
 40
1.486631
 50
312.746339
 51
318.727142
  0
ARC
  8
APS_GEOMETRY
 10
0.142422
 20
1.365039
 40
1.431399
 50
309.697035
 51
312.746617
  0
ARC
  8
APS_GEOMETRY
 10
0.190882
 20
1.306653
 40
1.355522
 50
306.598495
 51
309.697293
  0
ARC
  8
APS_GEOMETRY
 10
0.214105
 20
1.275428
 40
1.316608
 50
303.439935
 51
306.597313
  0
ARC
  8
APS_GEOMETRY
 10
0.258291
 20
1.208485
 40
1.236397
 50
300.213721
 51
303.440742
  0
ARC
  8
APS_GEOMETRY
 10
0.279033
 20
1.172877
 40
1.195189
 50
296.904004
 51
300.213472
  0
ARC
  8
APS_GEOMETRY
 10
0.31719
 20
1.09766
 40
1.110847
 50
293.497794
 51
296.904413
  0
ARC
  8
APS_GEOMETRY
 10
0.334317
 20
1.058299
 40
1.067921
 50
289.976986
 51
293.497085
  0
ARC
  8
APS_GEOMETRY
 10
0.363807
 20
0.977163
 40
0.981592
 50
286.325506
 51
289.977222
  0
ARC
  8
APS_GEOMETRY
 10
0.37592
 20
0.935786
 40
0.938478
 50
282.522866
 51
286.325884
  0
ARC
  8
APS_GEOMETRY
 10
0.394239
 20
0.853366
 40
0.854047
 50
278.547193
 51
282.522062
  0
ARC
  8
APS_GEOMETRY
 10
0.400332
 20
0.812797
 40
0.813023
 50
274.379994
 51
278.54748
  0
ARC
  8
APS_GEOMETRY
 10
0.406244
 20
0.735496
 40
0.735496
 50
270.000441
 51
274.380687
  0
ARC
  8
APS_GEOMETRY
 10
0.40625
 20
1.351563
 40
1.351563
 50
252.507675
 51
270.0
  0
LINE
  8
APS_GEOMETRY
 10
0.0
 11
0.0
 20
0.0625
 21
0.796875
  0
LINE
  8
APS_GEOMETRY
 10
0.0
 11
2.288113
 20
0.796875
 21
5.936061
  0
LINE
  8
APS_GEOMETRY
 10
2.288113
 11
2.828125
 20
5.936061
 21
6.28125
  0
LINE
  8
APS_GEOMETRY
 10
2.828125
 11
3.1875
 20
6.28125
 21
4.671874
  0
LINE
  8
CONSTRUCTION
 10
0.152615
 11
0.10065
 20
-1.038482
 21
-1.166909
  0
LINE
  8
CONSTRUCTION
 10
0.10065
 11
0.20458
 20
-1.166909
 21
-1.166909
  0
LINE
  8
CONSTRUCTION
 10
0.20458
 11
0.152615
 20
-1.166909
 21
-1.038482
  0
LINE
  8
CONSTRUCTION
 10
0.152615
 11
0.559547
 20
-1.038482
 21
-1.03848
  0
LINE
  8
CONSTRUCTION
 10
0.559547
 11
0.507582
 20
-1.03848
 21
-1.166908
  0
LINE
  8
CONSTRUCTION
 10
0.507582
 11
0.611512
 20
-1.166908
 21
-1.166908
  0
LINE
  8
CONSTRUCTION
 10
0.611512
 11
0.559547
 20
-1.166908
 21
-1.03848
  0
LINE
  8
CONSTRUCTION
 10
0.559547
 11
0.966478
 20
-1.03848
 21
-1.03848
  0
LINE
  8
CONSTRUCTION
 10
0.966478
 11
0.914513
 20
-1.03848
 21
-1.166908
  0
LINE
  8
CONSTRUCTION
 10
0.914513
 11
1.018442
 20
-1.166908
 21
-1.166908
  0
LINE
  8
CONSTRUCTION
 10
1.018442
 11
0.966478
 20
-1.166908
 21
-1.03848
  0
LINE
  8
CONSTRUCTION
 10
0.966478
 11
1.373408
 20
-1.03848
 21
-1.03848
  0
LINE
  8
CONSTRUCTION
 10
1.373408
 11
1.321443
 20
-1.03848
 21
-1.166908
  0
LINE
  8
CONSTRUCTION
 10
1.321443
 11
1.425373
 20
-1.166908
 21
-1.166908
  0
LINE
  8
CONSTRUCTION
 10
1.425373
 11
1.373408
 20
-1.166908
 21
-1.03848
  0
LINE
  8
CONSTRUCTION
 10
1.373408
 11
1.780281
 20
-1.03848
 21
-1.038482
  0
LINE
  8
CONSTRUCTION
 10
1.780281
 11
1.728316
 20
-1.038482
 21
-1.166909
  0
LINE
  8
CONSTRUCTION
 10
1.728316
 11
1.832246
 20
-1.166909
 21
-1.166909
  0
LINE
  8
CONSTRUCTION
 10
1.832246
 11
1.780281
 20
-1.166909
 21
-1.038482
  0
LINE
  8
CONSTRUCTION
 10
0.0
 11
4.0
 20
-1.561751
 21
-1.561751
  0
TEXT
  8
TEXT
 10
0.10065
 20
-1.405784
 30
0.0
 40
0.224
 50
0.0
  1
DOVETAIL DESIGNS
  0
TEXT
  8
TEXT
 10
2.276036
 20
-1.551751
 30
0.0
 40
0.099
 50
0.0
  1
& MILLWORK INC.
  0
TEXT
  8
TEXT
 10
1.092458
 20
-1.640461
 30
0.0
 40
0.07
 50
0.0
  1
Established 1979
  0
TEXT
  8
TEXT
 10
0.1
 20
-1.8
 30
0.0
 40
0.1
 50
0.0
  1
Phone: (406) 248-5010    Website: www.dovetailmt.com
  0
TEXT
  8
TEXT
 10
0.0
 20
-0.65
 30
0.0
 40
0.1
 50
0.0
  1
(1-11/32"x6-27/32")
  0
TEXT
  8
TEXT
 10
0.0
 20
-0.5
 30
0.0
 40
0.1
 50
0.0
  1
3-3/16"x6-9/32"
  0
TEXT
  8
TEXT
 10
0.0
 20
-0.25
 30
0.0
 40
0.15625
 50
0.0
  1
CN121
  0
ENDSEC
  0
EOF
