  0
SECTION
  2
ENTITIES
  0
ARC
  8
APS_GEOMETRY
 10
5.1875
 20
5.171399
 40
0.125
 50
283.610911
 51
0.0
  0
LINE
  8
APS_GEOMETRY
 10
5.3125
 11
5.3125
 20
5.171399
 21
5.3125
  0
LINE
  8
APS_GEOMETRY
 10
5.3125
 11
4.0
 20
5.3125
 21
5.3125
  0
LINE
  8
APS_GEOMETRY
 10
4.0
 11
0.0
 20
5.3125
 21
1.3125
  0
LINE
  8
APS_GEOMETRY
 10
0.0
 11
0.0
 20
1.3125
 21
-0.000029
  0
LINE
  8
APS_GEOMETRY
 10
0.0
 11
0.141101
 20
-0.000029
 21
0.0
  0
ARC
  8
APS_GEOMETRY
 10
0.141101
 20
0.125
 40
0.125
 50
270.0
 51
346.389089
  0
ARC
  8
APS_GEOMETRY
 10
0.70299
 20
-0.011049
 40
0.453125
 50
91.397174
 51
166.389029
  0
ARC
  8
APS_GEOMETRY
 10
0.680893
 20
0.894932
 40
0.453125
 50
271.397171
 51
358.602874
  0
LINE
  8
APS_GEOMETRY
 10
1.133883
 11
1.214173
 20
0.883883
 21
0.883901
  0
ARC
  8
APS_GEOMETRY
 10
1.214147
 20
1.008901
 40
0.125
 50
270.011918
 51
350.448677
  0
ARC
  8
APS_GEOMETRY
 10
4.928608
 20
0.383892
 40
3.641677
 50
99.551321
 51
170.448669
  0
ARC
  8
APS_GEOMETRY
 10
4.303599
 20
4.098353
 40
0.125
 50
279.551517
 51
359.987903
  0
LINE
  8
APS_GEOMETRY
 10
4.428599
 11
4.428617
 20
4.098326
 21
4.178617
  0
ARC
  8
APS_GEOMETRY
 10
4.417568
 20
4.631607
 40
0.453125
 50
271.397238
 51
358.602785
  0
ARC
  8
APS_GEOMETRY
 10
5.323549
 20
4.60951
 40
0.453125
 50
103.610914
 51
178.602824
  0
LINE
  8
CONSTRUCTION
 10
0.152615
 11
0.10065
 20
-1.038482
 21
-1.166909
  0
LINE
  8
CONSTRUCTION
 10
0.10065
 11
0.20458
 20
-1.166909
 21
-1.166909
  0
LINE
  8
CONSTRUCTION
 10
0.20458
 11
0.152615
 20
-1.166909
 21
-1.038482
  0
LINE
  8
CONSTRUCTION
 10
0.152615
 11
0.559547
 20
-1.038482
 21
-1.03848
  0
LINE
  8
CONSTRUCTION
 10
0.559547
 11
0.507582
 20
-1.03848
 21
-1.166908
  0
LINE
  8
CONSTRUCTION
 10
0.507582
 11
0.611512
 20
-1.166908
 21
-1.166908
  0
LINE
  8
CONSTRUCTION
 10
0.611512
 11
0.559547
 20
-1.166908
 21
-1.03848
  0
LINE
  8
CONSTRUCTION
 10
0.559547
 11
0.966478
 20
-1.03848
 21
-1.03848
  0
LINE
  8
CONSTRUCTION
 10
0.966478
 11
0.914513
 20
-1.03848
 21
-1.166908
  0
LINE
  8
CONSTRUCTION
 10
0.914513
 11
1.018442
 20
-1.166908
 21
-1.166908
  0
LINE
  8
CONSTRUCTION
 10
1.018442
 11
0.966478
 20
-1.166908
 21
-1.03848
  0
LINE
  8
CONSTRUCTION
 10
0.966478
 11
1.373408
 20
-1.03848
 21
-1.03848
  0
LINE
  8
CONSTRUCTION
 10
1.373408
 11
1.321443
 20
-1.03848
 21
-1.166908
  0
LINE
  8
CONSTRUCTION
 10
1.321443
 11
1.425373
 20
-1.166908
 21
-1.166908
  0
LINE
  8
CONSTRUCTION
 10
1.425373
 11
1.373408
 20
-1.166908
 21
-1.03848
  0
LINE
  8
CONSTRUCTION
 10
1.373408
 11
1.780281
 20
-1.03848
 21
-1.038482
  0
LINE
  8
CONSTRUCTION
 10
1.780281
 11
1.728316
 20
-1.038482
 21
-1.166909
  0
LINE
  8
CONSTRUCTION
 10
1.728316
 11
1.832246
 20
-1.166909
 21
-1.166909
  0
LINE
  8
CONSTRUCTION
 10
1.832246
 11
1.780281
 20
-1.166909
 21
-1.038482
  0
LINE
  8
CONSTRUCTION
 10
0.0
 11
4.0
 20
-1.561751
 21
-1.561751
  0
TEXT
  8
TEXT
 10
0.10065
 20
-1.405784
 30
0.0
 40
0.224
 50
0.0
  1
DOVETAIL DESIGNS
  0
TEXT
  8
TEXT
 10
2.276036
 20
-1.551751
 30
0.0
 40
0.099
 50
0.0
  1
& MILLWORK INC.
  0
TEXT
  8
TEXT
 10
1.092458
 20
-1.640461
 30
0.0
 40
0.07
 50
0.0
  1
Established 1979
  0
TEXT
  8
TEXT
 10
0.1
 20
-1.8
 30
0.0
 40
0.1
 50
0.0
  1
Phone: (406) 248-5010    Website: www.dovetailmt.com
  0
TEXT
  8
TEXT
 10
0.0
 20
-0.25
 30
0.0
 40
0.15625
 50
0.0
  1
CN116
  0
TEXT
  8
TEXT
 10
0.0
 20
-0.5
 30
0.0
 40
0.1
 50
0.0
  1
5-5/16"x5-5/16"
  0
TEXT
  8
TEXT
 10
0.0
 20
-0.65
 30
0.0
 40
0.1
 50
0.0
  1
(1-15/64"x7-33/64")
  0
ENDSEC
  0
EOF
