  0
SECTION
  2
ENTITIES
  0
ARC
  8
APS_GEOMETRY
 10
0.508233
 20
0.524251
 40
0.046875
 50
267.650174
 51
6.209372
  0
ARC
  8
APS_GEOMETRY
 10
1.584389
 20
0.641337
 40
1.035632
 50
83.790586
 51
186.209372
  0
ARC
  8
APS_GEOMETRY
 10
1.701476
 20
1.717493
 40
0.046875
 50
263.790751
 51
2.349519
  0
LINE
  8
APS_GEOMETRY
 10
1.748312
 11
1.74567
 20
1.719415
 21
1.783785
  0
ARC
  8
APS_GEOMETRY
 10
1.808278
 20
1.897953
 40
0.130208
 50
241.260325
 51
353.914827
  0
ARC
  8
APS_GEOMETRY
 10
2.217418
 20
1.854336
 40
0.28125
 50
97.935515
 51
173.914858
  0
ARC
  8
APS_GEOMETRY
 10
2.171039
 20
2.187056
 40
0.054687
 50
277.935252
 51
44.999887
  0
LINE
  8
APS_GEOMETRY
 10
2.209709
 11
1.262232
 20
2.225726
 21
2.225726
  0
LINE
  8
APS_GEOMETRY
 10
1.262232
 11
0.0
 20
2.225726
 21
0.963494
  0
LINE
  8
APS_GEOMETRY
 10
0.0
 11
0.0
 20
0.963494
 21
0.016018
  0
ARC
  8
APS_GEOMETRY
 10
0.03867
 20
0.054687
 40
0.054687
 50
224.999313
 51
352.064319
  0
ARC
  8
APS_GEOMETRY
 10
0.37139
 20
0.008308
 40
0.28125
 50
96.085137
 51
172.064492
  0
ARC
  8
APS_GEOMETRY
 10
0.327773
 20
0.417448
 40
0.130208
 50
276.085062
 51
28.739967
  0
LINE
  8
APS_GEOMETRY
 10
0.441941
 11
0.506311
 20
0.480056
 21
0.477415
  0
LINE
  8
CONSTRUCTION
 10
0.152615
 11
0.10065
 20
-1.038482
 21
-1.166909
  0
LINE
  8
CONSTRUCTION
 10
0.10065
 11
0.20458
 20
-1.166909
 21
-1.166909
  0
LINE
  8
CONSTRUCTION
 10
0.20458
 11
0.152615
 20
-1.166909
 21
-1.038482
  0
LINE
  8
CONSTRUCTION
 10
0.152615
 11
0.559547
 20
-1.038482
 21
-1.03848
  0
LINE
  8
CONSTRUCTION
 10
0.559547
 11
0.507582
 20
-1.03848
 21
-1.166908
  0
LINE
  8
CONSTRUCTION
 10
0.507582
 11
0.611512
 20
-1.166908
 21
-1.166908
  0
LINE
  8
CONSTRUCTION
 10
0.611512
 11
0.559547
 20
-1.166908
 21
-1.03848
  0
LINE
  8
CONSTRUCTION
 10
0.559547
 11
0.966478
 20
-1.03848
 21
-1.03848
  0
LINE
  8
CONSTRUCTION
 10
0.966478
 11
0.914513
 20
-1.03848
 21
-1.166908
  0
LINE
  8
CONSTRUCTION
 10
0.914513
 11
1.018442
 20
-1.166908
 21
-1.166908
  0
LINE
  8
CONSTRUCTION
 10
1.018442
 11
0.966478
 20
-1.166908
 21
-1.03848
  0
LINE
  8
CONSTRUCTION
 10
0.966478
 11
1.373408
 20
-1.03848
 21
-1.03848
  0
LINE
  8
CONSTRUCTION
 10
1.373408
 11
1.321443
 20
-1.03848
 21
-1.166908
  0
LINE
  8
CONSTRUCTION
 10
1.321443
 11
1.425373
 20
-1.166908
 21
-1.166908
  0
LINE
  8
CONSTRUCTION
 10
1.425373
 11
1.373408
 20
-1.166908
 21
-1.03848
  0
LINE
  8
CONSTRUCTION
 10
1.373408
 11
1.780281
 20
-1.03848
 21
-1.038482
  0
LINE
  8
CONSTRUCTION
 10
1.780281
 11
1.728316
 20
-1.038482
 21
-1.166909
  0
LINE
  8
CONSTRUCTION
 10
1.728316
 11
1.832246
 20
-1.166909
 21
-1.166909
  0
LINE
  8
CONSTRUCTION
 10
1.832246
 11
1.780281
 20
-1.166909
 21
-1.038482
  0
LINE
  8
CONSTRUCTION
 10
0.0
 11
4.0
 20
-1.561751
 21
-1.561751
  0
TEXT
  8
TEXT
 10
0.10065
 20
-1.405784
 30
0.0
 40
0.224
 50
0.0
  1
DOVETAIL DESIGNS
  0
TEXT
  8
TEXT
 10
2.276036
 20
-1.551751
 30
0.0
 40
0.099
 50
0.0
  1
& MILLWORK INC.
  0
TEXT
  8
TEXT
 10
1.092458
 20
-1.640461
 30
0.0
 40
0.07
 50
0.0
  1
Established 1979
  0
TEXT
  8
TEXT
 10
0.1
 20
-1.8
 30
0.0
 40
0.1
 50
0.0
  1
Phone: (406) 248-5010    Website: www.dovetailmt.com
  0
TEXT
  8
TEXT
 10
0.0
 20
-0.65
 30
0.0
 40
0.1
 50
0.0
  1
(3/4"x3-1/8")
  0
TEXT
  8
TEXT
 10
0.0
 20
-0.5
 30
0.0
 40
0.1
 50
0.0
  1
2-1/4"x2-1/4"
  0
TEXT
  8
TEXT
 10
0.0
 20
-0.25
 30
0.0
 40
0.15625
 50
0.0
  1
CN115
  0
ENDSEC
  0
EOF
